rock
 
|tablatures   |lyrics   |discussion forums   |more tabs @ XGuitar.com

Black Sabbath tabs

Selling My Soul guitar tab

Selling My Soul
Black Sabbath - Reunion (1998)

Tune down 1/2 step:

VERSE:
|------------------------|--------------------------------|--------||
|------------------------|--------------------------------|--------||
|o-----------------------|------------------7\6-7\6-------|-------o||
|o------------7----------|------(7)/9---9---5\4-5\4-7-6---|-------o||
|-9----9--7-9-5--9----9--|--7-9-(5)/7---7-----------5-4-9-|--4-7---||
|-7----7--5-7----7----7--|--5-7-------------------------7-|--2-5---||

CHORUS:
D                                B
|---------5---------------5-----|----------------------------------|
|-----7-------7-------7-------7-|----------7---------------7-------|
|o7---------------7-------------|------8-------8-------8-------8--o|
|o------------------------------|--9---------------9--------------o|
|-------------------------------|----------------------------------|
|-------------------------------|----------------------------------|

A                         D     ||: (1)=====================||: (2)==========================|
|-------------------------------|---------------------------||-------------------------------|
|---------5-------5-------------|----------7----------------||---------7---------------7-----|
|o----6-------6-------6---------|------8-------------------o||-----8-------8-------8-------8-|
|o7-----------------------7--7--|--9----------------7------o||-9---------------9-------------|
|-------------------------5--5--|-------------7--9--5-9--9--||-------------------------------|
|-------------------------------|-------------5--7----7--7--||-------------------------------|

SOLO:
|-----------------------------|-------------------------------------|
|-----------------------------|-------------------------------------|
|-------------------7\6-------|-----(7)/9-7-6-----------------------|
|-(7)/9----9----7-9-----9-7-9-|-7-9-----------7-9--7-7--------------|
|-----------------------------|------------------------9\7-5-5------|
|-----------------------------|--------------------------------7-/9-|

|-------------7------------------|---------------------------------|
|-10^----10^----10-7-----7--7----.......................-----------|
|---------------------9^-------9^|---hold bend----------\^---7-9---|
|--------------------------------|-------------------release-----9-|
|--------------------------------|---------------------------------|
|--------------------------------|---------------------------------|

|---10^-10-7h10p7-----7--------|---10^-10-7h10p7-----7---------|
|-7---------------10----10^~~--|-7---------------10----10^~~---|
|------------------------------|-------------------------------|
|------------------------------|-------------------------------|
|------------------------------|-------------------------------|
|------------------------------|-------------------------------|

|-7--------------------------------|--------------------------------------------|
|---10-7----7-7-7------------------|-------10--10-------------------------------|
|--------9^-------9^-9^-9^-9^p7 9^-|--9/11--------11\9p7---7~----------7-9-7----|
|----------------------------------|---------------------9-----(9p7)----------9-|
|----------------------------------|-------------------------------(9)----------|
|----------------------------------|--------------------------------------------|

|--------------------------------|
|--------------------------------|
|--------------------------------|
|-7-77---------------------------|
|------9\7-^^^^^^^^^---(^7p5)----|
|----------bend     ----------7--|


Then play CHORUS then VERSE again.
  development and support by
dmitry ivanov