rock
 
|tablatures   |lyrics   |discussion forums   |more tabs @ XGuitar.com

Black Sabbath tabs

Rock N Roll Doctor guitar tab

Rock N' Roll Doctor
Black Sabbath - Technical Ecstacy (1976)


                           Repeat each twice
|------------------------------||----------------------------------------
|------------------------------||----------------------------------------
|-7h9---9p7------------7-9-9p7-||-9h11--11-11p9---------------9-11-11p9--
|-----------9-9----7-9---------||---------------11-11----9-11------------
|------------------------------||----------------------------------------
|------------------------------||----------------------------------------


|----------------------------------------------------------
|----------------------------------------------------------
|-11------10------10------10-9-----------------------------
|-11--11--10--10--10--10--10-9-----------------------------
|--9--11---8--10---8--10---8-7-----------------------------
|------9-------8-------8-----------------------------------


|------------------------------------------------------------
|------------------------------------------------------------
|---------2-------------2-2-------------2------------2-2-----
|-2-2-----2-----2-2-----2-2-----2-2-----2----2-2-----2-2-----
|-0-0-3h4-------0-0-3h4-----3-3-0-0-3h4------0-0-3h4-----3-3-
|------------------------------------------------------------


|-----------------0-------------------------------0-----------
|-------------------0---4-----2-4-----------------------------
|-----4-----2---------4---4-2---------4-----2---------7-------
|-------------4-------------------------------4-------7-------
|-2-------2-----2-----------------2-------2-----2-----5-------
|-------------------------------------------------------------


(end of solo)

|-------8-10-10^^10p8-10-10-----------13-15-^15-13-15^-----|
|--8/10-------------------------13/15----------------------|
|----------------------------------------------------------|
|----------------------------------------------------------|
|----------------------------------------------------------|
|----------------------------------------------------------|
|                                                          |
|----------------------------------------------------------|
|----------------------------------------------------------|
|--5---------4--------2---------5-----------4--------------|
|--5---------4--------2---------5-----------4------5-------|
|--3---------2--------0---------3-----------2------5-------|
|--------------------------------------------------3-------|


|------------------------------------------------------------
|------------------------------------------------------------
|-----5---4-2-----5---4-2----------5---4-2-------------------
|-2---5---4-2-----5---4-2------2---5---4-2-------------------
|-0-------------0---------0-3^-0-0---------0-3-0-3-0-3-0---0-
|--------------------------------------------------------3---





  development and support by
dmitry ivanov