rock
 
|tablatures   |lyrics   |discussion forums   |more tabs @ XGuitar.com

Black Sabbath tabs

Rat Salad guitar tab

Rat Salad
Black Sabbath - Paranoid (1970)


|--(increase volume)---------------------------------------
|----------------------------------------------------------
|--3~~~~----------------3~~~~------------------------------
|---------3h5-3----------------3h5-3-----------------------
|---------------3/5------------------3/5-------------------
|-------------------3--------------------3/-\--------------

|----------------------------------------------------------
|----------------------------------------------------------
|----------------------------------------------------------
|----------------------------------------------------------
|-----3-3h4p3-3h4p3-3h4p3---------3-3h4p3-3h4p3-3h4p3------
|-3-6---------------------6-3-3-6---------------------6-3--

|----------------------------------------------------------
|----------------------------------------------------------
|----------------------------------------------------------
|----------------------------------------------------------
|-----3-4-3h4p3---------------3-4-3h4p3--------------------
|-3-6-----------6-3-------3-6-----------6-3----------------

|---------------------------------------------------15-15--15--15--
|------------------------------------------------------18^-18^-18^-
|------------------------------------------------17^---------------
|----------------8-10-12---------15-17^-17---17--------------------
|-----3-4-5-8-10-----------15/17-----------------------------------
|-3-6--------------------------------------------------------------

Solo:
|----------------------------------------------------------
|----------------------------------------------------------
|----------------------------------------------------------
|-7h8-7~~--7h8-10-7h8p7-7------------7h8-10-7--7-----------
|-------------------------8p7-7h8-10-------------8p7-------
|----------------------------------------------------------

|-------------------------------------------------------------
|-------------------------------------------------------------
|-------------------------------------------------------------
|------------------------------7--8-10-7h8p7-7----------------
|-7-8-7h8p7-7h8p7-7h8p7-7h8h10-----------------8p7-7h8p7----7-
|--------------------------------------------------------10---

|----------------------------------------------------------
|----------------------------------------------------------
|----------------------------------------------------------
|------7-10-7-7h8p7-7---------------7-8-10/12-10-8-8p7-----
|-8-10----------------8p7----7-8-10------------------------
|-------------------------10-------------------------------

|----------------------------------------------------------
|----------------------------------------------------------
|----------------------------------------------------------
|-7h8p7-7------------7-------------------------------------
|---------8p7-7-8-10---8-8/10-10-10------------------------
|----------------------------------------------------------





  development and support by
dmitry ivanov