rock
 
|tablatures   |lyrics   |discussion forums   |more tabs @ XGuitar.com

Black Sabbath tabs

Psycho Man bass tab

Artist: Black Sabbath
Song: "Psycho Man"
Album: Reunion

Tune 1 1/2 steps (C#, F#, B, E)

Intro/chorus                                       last time
--------------------------------------------------|---------|
--------------------------------------------------|---------|
-7--7--7--10--7-----------------------------------|---------|
-----------------------7----6-----5-----3--5--6---|--0------|

Verse:
|-------------------|
|-------------------|
|-7-5-----7-5-------|
|-----7-5-----7-6-5-|
This part was hard to hear Just play with these notes

Pre-solo
|--------------------------------------------|
|--------------------------------------------|
|--------------------------------------------|
|-7--7--7--8--7--8--7------8--7--8--7--8--10-|

Solo:
|-------------------------------------------------------|
|-------------------------------------------------------|
|-------------------------------------------------------|
|-0-----0----3---5-------5----3----5----6-------5---3---|

Slap the first few notes
|------------------|-----------------|----------------|
|------------------|-----------------|---------------*| T= Thump
|-T--T--T--T--T--T-|-----------------|-10-9-7-5-7-9-7*|
|-0--3--0--3--5--3-|-0-0-0-0-0-0-0-0-|----------------|

When he killed again...
|-------------------------|
|-------------------------|
|-12--12---12--10--9--7---|
|-------------------------|Tabbed by: Mr. Tinkertrain 
Artist: Black Sabbath
Song: "Psycho Man"
Album: Reunion

Tune 1 1/2 steps (C#, F#, B, E)

Intro/chorus                                       last time
--------------------------------------------------|---------|
--------------------------------------------------|---------|
-7--7--7--10--7-----------------------------------|---------|
-----------------------7----6-----5-----3--5--6---|--0------|

Verse:
|-------------------|
|-------------------|
|-7-5-----7-5-------|
|-----7-5-----7-6-5-|
This part was hard to hear Just play with these notes

Pre-solo
|--------------------------------------------|
|--------------------------------------------|
|--------------------------------------------|
|-7--7--7--8--7--8--7------8--7--8--7--8--10-|

Solo:
|-------------------------------------------------------|
|-------------------------------------------------------|
|-------------------------------------------------------|
|-0-----0----3---5-------5----3----5----6-------5---3---|

Slap the first few notes
|------------------|-----------------|----------------|
|------------------|-----------------|---------------*| T= Thump
|-T--T--T--T--T--T-|-----------------|-10-9-7-5-7-9-7*|
|-0--3--0--3--5--3-|-0-0-0-0-0-0-0-0-|----------------|

When he killed again...
|-------------------------|
|-------------------------|
|-12--12---12--10--9--7---|
|-------------------------|
  development and support by
dmitry ivanov