rock
 
|tablatures   |lyrics   |discussion forums   |more tabs @ XGuitar.com

Black Sabbath tabs

Paranoid bass tab

Paranoid - Bass
Black Sabbath - Paranoid (1970)


                                        People think I'm insane...
     ||----------------7-9-------------7-9-||---------------------------
     ||------------7-9-------------7-9-----||---------------------------
     ||--2/7--7--7---------7--7--7---------||--7-7-7-7-7-7-7-7-7-7-7-7--
     ||------------------------------------||---------------------------
                               Every so often Geezer throw this lick in.
     -------------------------|-----------------------7-9---------------
     ----------------5--------|-------------------7-9-------------------
     -5-5-5-5-5-5-5-----5--7--|-7-7-7-7-7-7-7-7-7---------5-5-5-5-5-5-5-
     -------------------------|-----------------------------------------

     ----------||--------------------5-----7----------------------------
     --5-------||------------------5-----7------------------------------
     -----5--7-||-7-7-7-7-7-7-7--3-----5-----7-7-7-7-7-7-7-7-7-7-7-7--3-
     ----------||-------------------------------------------------------

     ---5-----7-||---------------------------7---7---7---7---7---7---9--
     -5-----7---||------------------------------------------------------
     -----5-----||-7-7-7-7-7-7-7-7-7-7-7-7-5---5---5---5---5---5---7---7
     -----------||------------------------------------------------------
                                                  
     -9---9---9---9---9---7---7---7---7---7---7-||Piece it together, it's
     -------------------------------------------||not a difficult song.
     --7---7---7---7----5---5---5---5---5---5---||
     -------------------------------------------||

  development and support by
dmitry ivanov