rock
 
|tablatures   |lyrics   |discussion forums   |more tabs @ XGuitar.com

Black Sabbath tabs

Over to You guitar tab

Over To You
Black Sabbath - Never Say Die (1978)


|-----------------|-----------------------------------------
|-----------------|-----------------------------------------
|-----------------|-4-4--4-4-4------------------------------
|-----------------|-2-2--2-2-2-4-4--4-----------------------
|-2-2-2-2-2-2-2-2-|------------2-2--2-----------------------
|-----------------|-----------------------------------------


|----------------------------------------------------------
|----------------------------------------------------------
|-----2---2-----2-----4-----4---4--------------------------
|-----2---2-----2-----4-----4---4--------------------------
|-2-2---2---2-2---2-2-----2---2----------------------------
|----------------------------------------------------------

|----------------------------------------------------------
|---------------3------------------------------------------
|-----2---2-----2--2--4--4---4-----------------------------
|-----2---2--------2--4--4---4-----------------------------
|-2-2---2---2-2------------2-------------------------------
|----------------------------------------------------------


"Traveling endlessly Im searching my mind,
 F#        B        F#               B


Im almost afraid of what I might find"
G            A                   B



|---------5/7--5-----5/7--5--5/7---------------------------
|---------3/5--3-----3/5--3--3/5---------------------------
|---------2/4--2-----2/4--2--2/4---------------------------
|-2h4----------------------------2h4-----------------------
|-----2-2--------2-2-----------------2-2-------------------
|----------------------------------------------------------



|---------------------------------------------
|--------------------------3------------------
|--------------2-----------2-2/4--4-----------
|--------------2-------------2/4--4-----------
|-----2---------------------------------------
|-2h4---4-2h4---------------------------------
|
|----------------------------------------------------------
|--------------------------3-------------------------------
|------------------2-2-----2--2---4-4----------------------
|------------------2-2--------2---4-4----------------------
|--------------2-2-----2-2------------2-2------------------
|----------------------------------------------------------


  development and support by
dmitry ivanov