rock
 
|tablatures   |lyrics   |discussion forums   |more tabs @ XGuitar.com

Black Sabbath tabs

Over to You bass tab

Over To You - Bass
Black Sabbath - Never Say Die (1978)


|---------------------------------2h4----------------------
|----------------------4/6--4--4---------------------------
|-2-2--2--2--2--2-2-2-----------------2-2--2--2--2--2-2-2--
|----------------------------------------------------------

|-4/6-4----------------------------------------------------
|-------6p4-2----------------------------------------------
|-------------2-2--2--2--2--2-2-2--------------------------
|----------------------------------------------------------


"Traveling endlessly..."    (1)      (2)
 ------11-11h13-11-13\11--------|------11-11h13-11-13/16-16--------
|---11-------------------9------|---11-----------------------------
|-9------------------------9\7--|-9--------------------------14----
|------------------------------7|----------------------------------

|-------12------------------14--------9h11-9---------------
|----12------------------14------------------12-9----------
|-10-------10--10-10--12------12-12------------------------
|----------------------------------------------------------

|----------------------------------------------------------------
|-9-9--9--9-9--9-9-9---------7-6-7-----7--6-7---9-7--------------
|--------------------7h9----------------------------7h9----------
|------------------------7-7-------7-7------------------7-7------

  development and support by
dmitry ivanov