rock
 
|tablatures   |lyrics   |discussion forums   |more tabs @ XGuitar.com

Black Sabbath tabs

Over and Over guitar tab

Over And Over
Black Sabbath - Mob Rules (1981)

Fig A:
|----------------------------------------------------------
|----------------------------------------------------------
|----------------------------------------------------------
|-5-4-----------------------/5-4---------------------------
|-----5-7-----5~------5/7--------5-7----5~-----5/7---------
|-------0------------7-------------0----------7------------


|----------------------------------------------------------
|-----------[1/4]------------------------------------------
|----------------------------------------------------------
|-/5-4---/7-5^---------/7--5--4--5--4----------------------
|------5----------7--------------------5--7----------------
|-----------------------------------------0----------------

Fig B:
|----------------------------------------------------------
|----------------------------------------------------------
|----------------------------------------------------------
|--/5--4--------4--5-------4-5---/7--5--4--5--4------------
|---------5--7--------7--------------------------5--/7-----
|----------------------------------------------------0-----

start of 2nd solo:
|------------------------------------12--------------------14-------
|-----------------------------------------15^---^15--12h15----15-12-
|------------------------------12-14--------------------------------
|----4--5--7-----9------12-/14--------------------------------------
|-7-----------------------------------------------------------------
|-------------------------------------------------------------------



  development and support by
dmitry ivanov