rock
 
|tablatures   |lyrics   |discussion forums   |more tabs @ XGuitar.com

Black Sabbath tabs

Odin's Court guitar tab

Odin's Court
Black Sabbath - TYR (1990)

guitar I
|----------------------------------------------------------0-|
|----------------------------------------------------------0-|
|------------------------5/7-------------------------------0-|
|-----5-7/9----7\5-----5--------9-7-----5-7/9----7\5-----5-5-|
|---7--------7-------7--------7-------7--------7-------7---7-|
|-0----------------0----------------0----------------0-------|
|guitar II                                                   |  
|--------0-----0---------0-----3p2--------0-----0----------0-|
|-----0----0---3/5-----0---0---0--------0---0---3/5------0-0-|
|---0--------0-------0-------0--------0-------0--------0---0-|
|-2----------------2----------------2----------------2-----2-|
|------------------------------------------------------------|
|------------------------------------------------------------|

Electric Fill:
|--------------------------------
|-15^15-12-15^-15^-15^15-12-15^--
|--------------------------------
|--------------------------------
|--------------------------------
|--------------------------------

|--0---0-------0----------------0---------
|-10--10---7---7----5----5--5-----0-------
|--9-------7---7----4----5--5-------5-----
|-12-------9--------5----7--7---------7---
|-----------------------------------------
|down-up----------------------------------

Fills:
|---------------------------------^17----------------------|
|-^15--12------------------------------17^---15^-----------|
|----------12-/14-14---------------------------------------|
|----------------------------------------------------------|
|----------------------------------------------------------|
|----------------------------------------------------------|

|----12----------------------------------------------------|
|-12----12-15^-15^15p12-15^m-------------------------------|
|---------------------------------^14---12-----------------|
|----------------------------------------------------------|
|--------------------------------------------12-/-14-------|
|----------------------------------------------------------|

Go into Valhalla.

  development and support by
dmitry ivanov