rock
 
|tablatures   |lyrics   |discussion forums   |more tabs @ XGuitar.com

Black Sabbath tabs

Never Say Die guitar tab

Never Say Die
Black Sabbath - Never Say Die (1978)


|-----------------------|
|-----------------------|
|--2---4---7---2--------|
|--2---4---7---2--------|
|--0---2---5---0--2p0---|
|--------------------3^-|


|-------------------------------------------------------|
|-------------------------------------------------------|
|-------------------------------------------------------|
|-------------------------------------------------------|
|-3-----------------3-3-----2-2-----0-0-----------------|
|-1-----------------------------------------3-3-----1-1-|


|--------------------------------------|
|--------------------------------------|
|--------------------------------------|
|-------------------------0-0-----2----|
|-3-3-----2-2-----3-3---------------3--|
|--------------------------------------|


|--------------------------------------||---|---|---|---|
|--------------------------------------||---|---|---|---|
|--------------------------------------||---|---|---|---|
|--------------------------------------||---|---|---|---|
|-3-3-----2-2-----0-0------------------||---|-0-|-2-|-3-|
|-------------------------3-3-----1-3--||---|---|---|---|


|-------------------------------------------|
|-12--------12--------10--------10----------|
|----12---------12-------10--------10-----o-|
|-------12--------12--------10--------10--o-|
|-------------------------------------------|
|-------------------------------------------|


|-------0------------0-----------------------------------|
|-----0----0-------0----0----------7-------7-----7-------|
|---5--------5---5--------5------7----7------7------7----|
|------------------------------7--------7------7------7--|
|-0--------------------------5---------------------------|
|--------------------------------------------------------|

solo:
|-----------------------------------------------|
|----------------------------------5h8p5-----5--|
|-9p7--7--------------------5--7^--------7^-----|
|----10-10p9-10p9p7-9-7~~-----------------------|
|-----------------------------------------------|
|-----------------------------------------------|


|--------------------------------------------------|
|-5h8p5--5h8---------------------------------------|
|------7^---5-7-5----------------------------------|
|------------7---7/17\7------7-7------7-h-9--9^-9^-|
|-----------------------5-7/9------7h9-------------|
|--------------------------------------------------|

|------------------------------------------------------8-10-|
|----------------------5h8-5---5h8-5-----5h8-5---5h8/10-----|
|---------------7^~~~-------7^------7-7^------7^------------|
|-9^-9^97-7-------------------------------------------------|
|--------9--------------------------------------------------|
|-----------------------------------------------------------|

|-10p8--8-8--------------------------|-----------------------|
|-----10---10\8\7p5------------------|-----------------------|
|------------------7p5-7p5-----------|------------5h7-7p5h7--|
|---------------------7---7^~~~/(14)-|--------567------------|
|------------------------------------|---3/5-7---------------|
|------------------------------------|-5---------------------|

|--------------------------|------------------------|
|-----5-8p5h8--------------|------------------------|
|-5h8---------7p5h7p5-5----|------------------------|
|--------------------7-7p5-|-7p5--------------------|
|--------------------------|----7\5p3---5p3---5p3---|
|--------------------------|----------5-----5-----5-|

|------------------------------------------------------------------|
|------------------------------------------------------------------|
|------------------------------------------------------------------|
|------------------------------------------------------------------|
|------------------------------------------------------------------|
|-5------5---p---/12------5------5---p---/12----5------5---p---/12-|


  development and support by
dmitry ivanov