rock
 
|tablatures   |lyrics   |discussion forums   |more tabs @ XGuitar.com

Black Sabbath tabs

Master of Insanity guitar tab

Master Of Insanity
Black Sabbath - Dehumanizer (1992)


|------------------------------------------||--------
|-----------------------------------repeat-||--------
|------------------------------------------||-9------
|-----------------3-----6-----9-8-6--------||-9------
|-7-----4-------2-----5-----8-------8------||-7------
|---6-0---3-0-1-----4-----7----------------||-------- 


|-----------------------------------------------------------------
|-----------------------------------------------------------------
|-9---------------5---------------0-----0-----0---0-----0---------
|-9------8---9----5------4---5------4-----4---------4-----4-------
|-7-7777-7---7--0-3-3333-3---3-/5-----5-----5---4-----3-----0-----
|-----------------------------------------------------------------


|----------------------------------------------------------
|----------------------------------------------------------
|--------------------------------------5-------------------
|--------------------------------------5-------------------
|-----7-7---7-7-7---------7-7---7-7-7--3------7-7---7-7-7--
|-0-0-----0-----------0-0-----0-----------0-0-----0--------


---------------
---------------
---------------
--9---8---5----
--9---8---5----
--7---6---3----

"your freedom is gone..."
|----------------------------------------------------------
|-------0-----5--5-----5--6-5----7--7----------------------
|-----5---5---5----5---5------5\-7----7--------------------
|---7-------7-7------7-7---------7------7------------------
|-0--------------------8---------9--------9----------------
|----------------------------------------------------------


|----------------------------------------------------------
|----------------------------------------------------------
|----------------------------------------------------------
|----------------------------------------------------------
|------9--10-\----------/9--7--5-4---------9--10-\---------
|-7--------------5--7--------------7-5-7-------------5--7--





  development and support by
dmitry ivanov