rock
 
|tablatures   |lyrics   |discussion forums   |more tabs @ XGuitar.com

Black Sabbath tabs

Lost Forever guitar tab

Lost Forever
Black Sabbath - The Eternal Idol (1987)

|-----------------------------------------------------------
|-----------------------------------------------------------
|-------------------------7p5-8p7p5-7-7p5-5p4h5-2-----------
|-------------------------7p5-8p7p5-7-7p5-5p4h5-2-----------
|-0-0-0-0-0-0-0-0-0-0-0-0-------------------------0-0-0-0-0-
|-----------------------------------------------------------

|-------------------------------------
|-------------------------------------
|---5-7----7-6-5----5-6-7----7-6-5----
|---5-7----7-6-5----5-6-7----7-6-5----
|-0-3-5----5-4-3----3-4-5----5-4-3----
|-------------------------------------

1st time
|-----------------------------------
|------------------(bend up and back down)
|-----------------------------------
|----------------3--2^-^-^-^-^-^-^--
|-------2--3--2---------------------
|-0--3------------------------------

2nd time
|----------------------------------------------------------------
|----------------------------------------------------------------
|----------------------------------------------------------------
|----------------------------------------------------3--2^-^-^-^-
|-------2--3--2-----------2--5--4--------2--5--4--5--------------
|-0--3-----------3--0--3-----------5--3--------------------------

"Im burning with fire..."
|----------------------------------------------------------
|----------------------------------------------------------
|---3-----------------------3---5---3----------------------
|---3-----------3-----------3---5---3----------------------
|---1-----------3-----------1---3---1----------------------
|-3---3-3-3-3-3-1-3-3-3-3-3---3---3---3-3-3-3-3------------back to 1st riff


  development and support by
dmitry ivanov