rock
 
|tablatures   |lyrics   |discussion forums   |more tabs @ XGuitar.com

Black Sabbath tabs

Letters From Earth guitar tab

Letters From Earth
Black Sabbath - Dehumanizer (1992)



|---------------------0---------------------------------------
|-------------------1-----1-----------------------------------
|---------/7-6----2---------2-------0-----0-------------------
|-2-3-5-7-/7-6--3-------------0---2-----0---------------------
|-2-4-5-7-/5-4------------------3-----2-----1~----------------
|-0-2-3-5-----------------------------------------------------


|------------------------------------------------------------
|------------------------------------------------------------
|------------------------------------------------------------
|-2--4--5\------------------2--4--5\----------2---0----------
|-2--4--5\------------------2--4--5\------------2---1--------
|-0--2--3\--0-0-0-0-0-0-0-0-0--2--3\--0-0-0-0----------------


*
|------------------------------------------------------------
|------------------------------------------------------------
|---------9-9------------9------------9-9------------7-------
|-2-5\4-2-9-9----2-5\4-2-9----2-5\4-2-9-9---2--5\4-2-5-7-----
|-2-5\4-2-7-7----2-5\4-2-7----2-5\4-2-7-7---2--5\4-2---5-----
|-0-3\2-0--------0-3\2-0------0-3\2-0-------0--3\2-0---------


|--------------------------------------------------------------------
|--------------------------------------------------------------------
|--------------------------------------------------------------------
|-------4-5-7-----2--4--5------------------2--4--5----------2---0----
|-7-6-7-----------2--4--5------------------2--4--5------------2---1--
|-------------6^--0--2--3--0-0-0-0-0-0-0-0-0--2--3--0-0-0-0----------

  
  what if i send...
|------------------------------------------------------------
|------------------------------------------------------------
|-4-------5---5-5/7-4----5----4-----5--5-5/7-4---2-4-5/7-4-5-
|-4-------5---5-5/7-4----5----4-----5--5-5/7-4---2-4-5/7-4-5-
|-2-------3---3-3/5-2----3----2-----3--3-3/5-2---0-2-3/5-2-3-
|------------------------------------------------------------

 earth...
|----------------------------------------------------------------
|-------------------------8--------------------------------------
|-9-9---------9-9---------7-----9-9--------9-9--------12-11------
|-9-9---------9-9---------5-----9-9--------9-9--------12-11------
|-7-7---------7-7--7-9-10-------7-7--------7-7--------10--9------
|-----0-0-0-0----------------------0-0-0-0----0-0-0-0------------




this part is a little tricky.  It is meant to be played by 2 guitars or more...
|-----------0-----------0----------------------------------2----------------------
|-----1p0------/6\--1---3-----5-6-5--------------5-6-------3-3-----5-6-5----------
|---------2----/5\--2---2---7-------7-5--4-----7-----5\----2---2-7-------7-5-4----
|---2----------/7\--3---0---0-2-3-2-0-------7--0-2-3----3--0-----0-2-3-2-0-----7--
|-0-----------------------------------3--2--0--------3\--------------------3-2-0--
|-------------------------------------------------------1-------------------------



            H   H                          H   H   
|-----------------------------------------------------------------------
|-----------------------------------------------------------------------
|-5-7-4-5---2---1~---1h2-------------------2---1~---1h2-----------------
|-5-7-4-5----------------2-1-0---0----------------------2-1-0---0-------
|-3-5-2-3-0---0----0-----------3---3-2-1-0---0----0-----------3---2-1~--
|-----------------------------------------------------------------------


|------------------|---------------------
|------------------|---------------------
|------------------|---------------------
|-2-2------2-2-----|---------------------
|-2-2------2-2-----|---------------------
|-0-0------0-0-----|-(back to *)---------





  development and support by
dmitry ivanov