rock
 
|tablatures   |lyrics   |discussion forums   |more tabs @ XGuitar.com

Black Sabbath tabs

Lady Evil guitar tab

Lady Evil
Black Sabbath - Heaven And Hell (1980)


|----------------------------------------------------------
|----------------------------------------------------------
|-----3--3-----3----3/5-----------3--3-----3---3-----------
|-----3--3-----3----3/5-----------3--3-----3---3--5--------
|----------(5)-------------------------(5)--------5--------
|-3-3-------------------0-1-2-3-3--------------------------


|----------------------------------------------------------
|----------------------------------------------------------
|----------------3------5----------------------------------
|----------5-----3------5----------------------------------
|----------5-----------------------------------------------
|-0--1--2--------------------------------------------------

"There's a place..."
|----------------------------------------------------------
|----------------------------------------------------------
|-----3--3-------3--6p5-3---------3--3-------3--6p5-3------
|-----3--3----5--3--6p5-3-3h5-(5)-3--3----5--3--6p5-3-3h5--
|-------------5-----------3h5-(5)---------5-----------3h5--
|-3-3------------------------------------------------------

"Lady Evil..."              "She's a Magical..."
|-------------------------|------------------------------------
|-------------------------|------------------------------------
|-3-----------------------|-5-5-5-5--3-------------------------
|-3--------5--------------|-5-5-5-5--3--3--5-------------------
|-1--------5--------------|-3-3-3-3--1--3--5-------------------
|----------3--------------|-------------1--3-------------------
|                         | 
|-------------------------|---------------------------------
|-------------------------|---------------------------------
|-------------------------|---------------------------------
|-------------------------|---------------------------------
|-------------------------|---------------------------------
|----------3--3p1-3-3p1-3-|---------------------------------

"Lady evil.."        "Evil in..."    
|----------------------------------------------------------
|----------------------------------------------------------
|--------3-------------------------------------------------
|-3--5---3-----------3-------------------------------------
|-3--5---1-----------3----3-3-3-3-3-3-3--------------------
|-1--3---------------1----1-1-1-1-1-1-1--------------------


|----------------------------------------------------------
|----------------------------------------------------------
|----------5--5-------5---8p7-5----------------------------
|----------5--5----7--5---8p7-5--5h7-(7)-------------------
|------------------7-------------5h7-(7)-------------------
|--3-4-5-5-------------------------------------------------

During solo/interlude:
|-----|------|-----|-----|----|-----|-----|----------------
|-----|------|-----|-----|----|-----|-----|----------------
|--7--|------|--7--|-----|--9-|-----|--9--|--7--7-7-7-7-7--
|--7--|---7--|--7--|--7--|--9-|--9--|--9--|--7--7-7-7-7-7--
|--5--|---7--|--5--|--7--|--7-|--9--|--7--|--5--5-5-5-5-5--
|-----|---5--|-----|--5--|----|--7--|-----|----------------


|----------------------------------------------------------
|----------------------------------------------------------
|--------3--------------------------5------3---------------
|----5-3---5-------3---------5-3-5--5------3---------------
|--------------3h5---5-------------------------------------
|--3-------------------6-5-3-------------------------------


Ending:
|---------------------
|------3--------------
|----3---6-5-3--------
|--5-----------5\-----
|---------------------
|---------------------

the fills and solo are played mostly in Gmin pentatonic, 
with some references to a D pentatonic



  development and support by
dmitry ivanov