rock
 
|tablatures   |lyrics   |discussion forums   |more tabs @ XGuitar.com

Black Sabbath tabs

Keep It Warm guitar tab

Keep It Warm
Black Sabbath - Born Again (1983)

|----------------------------------------------------------
|----------------------------------------------------------
|----------------------------------------------------------
|--4/5---------------5-7-----4/5---7------------5-7--------
|--2/3-----3p2p0-------------2/3---5--3p2p0----------------
|----------------5-5------------------------5-5------------

|---------0-------------0--------------3--------------------
|-------3---3---------1---1------------0--------------------
|-----2-------2-----0-------0-------------------------------
|--0--------------------------------0-------------------2---
|----------------3----------------2---------3--0-3--0-3-----
|------------------------------3----------------------------

|---------------------|------------------------------------
|---------------------|------------------------------------
|---------------------|------------------------------------
|--5---4---2------2---|--4/5-------------5-7---------------
|--3---2---0------0---|--2/3---3p2p0-----------------------
|--------------3^-----|--------------5-5-------------------


  development and support by
dmitry ivanov