rock
 
|tablatures   |lyrics   |discussion forums   |more tabs @ XGuitar.com

Black Sabbath tabs

Junior's Eyes guitar tab

Junior's Eyes
Black Sabbath - Never Say Die (1978)


guitar:(w/ wah)
    h---------           h--------
|---7~~~~~~~~~----------12\~~~~~~~--|
|---8-------------------12\---------|
|---9-------------------12\---------|
|-------------5h7p5-----------------|
|-------------------7\--------------|
|-----------------------------------|


chorus:		          |---------1,2,+3----|
|---------------------------------------------||--------|
|---------------------------------------------||--------|
|---9----9-9-9---7--5-5--5-5-5-5--------------||-5-4--7-|
|---9----9-9-9---7--5-5--5-5-5-5--------------||-5-4--7-|
|---7----7-7-7---5--3-3--3-3-3-3--0-2p0---2---||-3-2--5-|
|-0----0--------0--0----0---------------3---0-||--------|



|---------------------------------------------------------|
|---------------------------------------------------------|
|-----14----14--12---------------14----14--12--9--7-------|
|-----14----14--12---------------14----14--12--9--7-------|
|----------------------5-6-7------------------------------|
|-0-0----0-0---0-------------0-0----0-0---0---------5-6-7-|


solo:        b-r
|----15---------------------15-17-17^--17^--17^^17----|
|-15^--15^-15^^15-----15-17------------------------15-|
|-----------------------------------------------------|
|-----------------------------------------------------|
|-----------------------------------------------------|
|-----------------------------------------------------|


|------------------------------------------------12---------|
|-15^^^^^^^^^^^^^^^^^15\---------------------------15p12-15-|
|-------------------------------------------14^-------------|
|-----------------------------------------------------------|
|-----------------------------------------------------------|
|-----------------------\10-10h12~~~~~~---------------------|

           b   r
|---------------------------12-------------------------|
|--12-15-----------------------15-12-------------------|
|--------14161412-14^----14^---------161412 14^12~~~~~-|
|------------------------------------------------------|
|------------------------------------------------------|
|------------------------------------------------------|


|--------------------------------------------------------------|
|-------------------5^---5^--3-5p3~~~~~-----3-5^--5^-5353 3~~~-|
|-----4--2-2~~~~~-----------------------2h4--------------------|
|-2------------------------------------------------------------|
|--------------------------------------------------------------|
|--------------------------------------------------------------|


|----------------------------------------------------|
|-----3--------------------------------------5~~~~~--|
|-2h4---2-0-^2-0------2-4~~~~---2p0-------/4---------|
|----------------2--5---------------2---5------------|
|----------------------------------------------------|
|----------------------------------------------------|


|------------------------------------------|
|----3--------------------------5~~~~~~~~--|
|-/4----------2--^2-2~~~~~---4-------------|
|------2---5-------------------------------|
|------------------------------------------|
|------------------------------------------|

hers the end:

E5         D5        G5/D E5       C5       D5     E5   




  development and support by
dmitry ivanov