rock
 
|tablatures   |lyrics   |discussion forums   |more tabs @ XGuitar.com

Black Sabbath tabs

Johnny Blade guitar tab

Johnny Blade
Black Sabbath - Never Say Die (1978)


|----------------------------------------------------------
|----------------------------------------------------------
|----------------------------------------------------------
|------3--------------3--------------3---------------------
|----------2p1------------2p1------------2p1---------------
|-1--1---1-----3-1--1---1-----3-1--1---1-----3-1-----------


|----------------------------------------------------------
|----------------------------------------------------------
|-3--1--1-/3----------------3--1--1-/3---------------------
|-3--1--1-/3----------------3--1--1-/3---------------------
|--------------------2p1-----------------------------------
|-------------1--1-1-----3---------------------------------


|----------------------------------------------------------
|----------------------------------------------------------
|----------------------------------------------------------
|------5--------------5--------------5---------------------
|----------4p3------------4p3------------4p3---------------
|-3--3---3-----5-3--3---3-----5-3--3---3-----5-3-----------


|----------------------------------------------------------
|----------------------------------------------------------
|-5--3--3-/5----------------5--3--3-/5---------------------
|-5--3--3-/5----------------5--3--3-/5---------------------
|--------------------4p3-----------------------------------
|-------------3--3-3-----5---------------------------------

johnny blade..
|----------------------------------------------------------
|----------------------------------------------------------
|----------------------------------------------------------
|-7---------7---10--12------7--------7---10--12------------
|-7---------7----8--10------7--------7----8--10------------
|-5---------5---------------5--------5---------------------

|----------------------------------------------------------
|----------------------------------------------------------
|----------------------------------------------------------
|-777766664444------777766664444---------------------------
|-5555444422227777--5555444422222222-----------------------
|-------------5555--------------0000-----------------------


|----------------------------------------------------------
|----------------------------------------------------------
|----------------------------------------------------------
|----------------------------------------------------------
|---------------------3p2-----5-5-5-5-3-5---5-5h6-5p3------
|-3/5-5-5-3-5---5-3-5-----5p3-------------------------5p3--

he's the one...
|----------------------------------------------------------
|----------------------------------------------------------
|-----------------7----------------------------------------
|-7------5--------7------7---------------------------------
|-7------5--------5------7---------------------------------
|-5------3---------------5---------------------------------


|-------------------------------------------------------------
|-------------------------------------------------------------
|-------------------------------------------------------------
|---------------------7-10--7-------------77777777---7-10--7--
|-55555555-44444444---7-10--7----55555555-55555555---7-10--7--
|-33333333-22222222---5--8--5----33333333------------5--8--5--

Solo:
|----------------------------------------------------------
|---------------8^---9^--8-5-------------------------------
|--7^^^p5--------------------7-----------------------------
|---------7--------------------7------7-5------------------
|-----------------------------------------7-7\5-3-5^-5-----
|----------------------------------------------------------


|----------------------------------------------------------
|----------------------------------------------------------
|------------------------------------------------5-4-5-7---
|----7-5-------------------------------------5-7-----------
|---------7-5---3-5-5^-3-5^-3----3-2-3-3/5-7---------------
|-5----------------------------5---------------------------


|--------------------------------------------5-------------
|-------------------------------8^---8----8^----8-5-5------
|-5-7^-5-7^-5-7^-5------------------------------------7-5--
|------------------7~~~------------------------------------
|----------------------------------------------------------
|----------------------------------------------------------


|--------------------------------------8-------------------
|----------------------------------------------------------
|-7^-7^p5-7^-7^p5-7^-7^p5-7^-7^p5--7^----^7----------------
|----------------------------------------------------------
|----------------------------------------------------------
|----------------------------------------------------------


|----------------------------------------------------------
|-5--5--5----8---8---8---10--10--10---13---17--------------
|-7^-7^-7^--10^-10^-10^--12^-12^-12^--15^--19^-------------
|----------------------------------------------------------
|----------------------------------------------------------
|----------------------------------------------------------


|----17h20p17----17h20p17-|----20p17----20p17----20p17------
|-17----------17----------|-17-------17-------17------------
|-------------------------|---------------------------------
|-------------------------|---------------------------------
|-------------------------|---------------------------------
|-------------------------|---------------------------------


|-----5--\----5--\-----------8------------------8------------
|-----8^-\----8^-\-----8/10-----------------------5--5--5----
|------------------------------7\5-5^^----7-7^----7^-7^-7^---
|-------------------------------------7-7--------------------
|------------------------------------------------------------
|------------------------------------------------------------

|--------8-10-10^---------------15^---------8-10^^8-----8----
|--8/10-------------------13-15-------8/10-----------10------
|-------------------12/14------------------------------------
|------------------------------------------------------------
|------------------------------------------------------------
|------------------------------------------------------------

|------5----------------------------------------------------
|---------8-------------------------------------------------
|-7^^-------7^^p5---------------------5---------------------
|-----------------7--------------7--7---7-------------------
|---------------------7-7-7/9--7----------------------------
|-----------------------------------------------------------

|----------------------------------------------------------
|--------8/10-8----------------------5-/10\--8/10\--8/10\--
|----------------7-5-7^-7^p5-----5-7-----------------------
|-5/7-7----------------------5-7---------------------------
|----------------------------------------------------------
|----------------------------------------------------------


|----8-----------------------------------------------------
|----------------------------------------------------------
|-7^----7^p5----5--7p5-7p5-7p5-7p5-----7^-7^~~~------------
|------------7---7-----------------7-----------------------
|----------------------------------------------------------
|----------------------------------------------------------


|----------------------------------------------------------
|----------------8^--8-5-----------------------------------
|-7^-7-5-7---------------7-5-------------------------------
|----------------------------5-7\--------------------------
|----------------------------------------------------------
|----------------------------------------------------------
  development and support by
dmitry ivanov