rock
 
|tablatures   |lyrics   |discussion forums   |more tabs @ XGuitar.com

Black Sabbath tabs

Jerusalem guitar tab

Jerusalem
Black Sabbath - TYR (1990)

Fig A
|------------------------------------------
|------------------------------------------
|------------------------------------------
|------------------------------------------
|-7-7-7-7-7--7-7-7-7-7---------------------
|-5-5-5-5-5--5-5-5-5-5--5-7-8--7-5-3-------

FigB
|------------------------------------------------------------------
|------------------------------------------------------------------
|-------(trill)-------------------------------(trill)--------------
|---7-------------------------------------7------------------------
|-----7-676767----6-7676---6-7676---6-------7-676767---------------
|-5-------------8--------8--------8---7-5------------5-7-8--7-5-3--

Fig C
VERSE:
|----------------------------------------------------------
|----------------------------------------------------------
|----------------------------------------------------------
|-7/9-9-9-9-----7-9-----9--9-----7-9\----------9--9--7-9---
|-5/7-7-7-7-----5-7-----7--7-----5-7\----------7--7--5-7---
|-----------0-0--------------0-0------0--0-0-0-------------
VERSE CONT.:
|----------------------------------------------------------
|----------------------------------------------------------
|------------7\6----------9--7-9-----9--9-----7-9----------
|-5--/9--7---5\4----------7--5-7-----7--7-----5-7--and so on..
|-3--/7--5-------0--0-0-0--------0-0------0-0--------------
|----------------------------------------------------------

FigD
"a thousond..."
|---------0--------------0-------3p2-2-----2-----3-----2-----
|-------1---1--------------3-----3---3-------3---3-3---3-3---
|-----0-------0--------2-----2---2---2-2-------2-2---2-2---2-
|---2-----------2--------------0-0---0-----------0-----0-----
|-3----------------2-----------------------------------------
|------------------------------------------------------------

"Where will you turn if it all goes wrong"
|----------------------------------------
|----------------------------------------
|----------------------------------------
|----------------------------------------
|-7-7-7-7-7--7-7-7-7-7-------------------
|-5-5-5-5-5--5-5-5-5-5--5-7-8--7-5-3-----(also play Fig B)

Fig E
           "Everybody knows your name"       *2nd & 4th time*
|-3---2--||-------------------------------||---------------
|-3---3--||-6------6--6----------10----8--||-12---10-------
|-2---2--||-7------7--7----------10----9--||-12---11-------
|-0---0--||-8------8--8----------10---10--||-12---12-------
|--------||-8-----------------------------||---------------
|--------||-6--6-6------------------------||---------------Back to Fig C forsolo





  development and support by
dmitry ivanov