rock
 
|tablatures   |lyrics   |discussion forums   |more tabs @ XGuitar.com

Black Sabbath tabs

It's Alright guitar tab

It's Alright
Black Sabbath - Technical Ecstacy (1976)


Piano: arr. for guitar:
|----------------------------------------------------------
|-5--5--5--5--5--5--5--5--5--5--5--5--5--5--5--5-----------
|-5--5--5--5--4--4--4--4--5--5--5--5--5--5--5--5-----------
|-5--5--5--5--5--5--5--5--7--7--7--7--5--5--5--5-----------
|-3-----------2-----------0--------------------------------
|-------------------------------------3--------------------

|-------------------------------------------------------------
|-10--10--10--10--10--10--10--10--5--5--5--5--6--6--5--5-5-5--
|-10--10--10--10--10--10--10--10--5--5--5--5--5--5--7--7-5-7--
|-10--10--10--10--10--10--10--10--5--5--5--5--5--5--5--5-5-5--
|--8---------------8--------------3---------------------------
|----------------8--------------------------------------------


***Chords for verse***
***C  B  A  G  F  F  C***


Solo:
|----------------------------------------------------------
|----------------------------------------------------------
|---------5-7-7^-5-----5/7\---------5-7-7^-5-5-------------
|-----5/7-----------------------5/7------------------------
|-8~~-----------------------8~~----------------------------
|----------------------------------------------------------

|----------------------------------------------------------
|----------------------------------------------------------
|----7-8-7h8p7----7------7-8-10-7-8-/10---10-8-7h8p7-5h7p5-
|-10-----------10---8-10-----------------------------------
|----------------------------------------------------------
|----------------------------------------------------------

|----------------------------------------------------------
|----------------------------------------------------------
|----------------------------------5-7-7^-5-5----5/7\------
|-7-5-----3h4-5~~--------3~~---5/7---------------------3~~-
|----------------------------------------------------------
|----------------------------------------------------------

|-------------------7---7---7---7-------------------------------
|------------------11^-11^-11^-11^-11^-11-8----8---------13-13^-
|-----5-7-7^-5-5----------------------------10---10-8-----------
|-5/7-------------------------------------------------10--------
|---------------------------------------------------------------
|---------------------------------------------------------------

|------------------
|-^13--------------
|-----12-12~~------
|------------------
|------------------
|------------------



  development and support by
dmitry ivanov