rock
 
|tablatures   |lyrics   |discussion forums   |more tabs @ XGuitar.com

Black Sabbath tabs

It's Alright bass tab

Black Sabbath - It's Alright
Submitted By: syko
EMail: bmx_racer99@hotmail.com
Technical Ecstasy (1970)


        Main riff - start when drums come in
||------------------------------------------------------------------|
||----10-10----10-10---10-9-9---9-9---9-7-7---7-7---7-5-5---5-5---5-|
||----------10----------------9-------------7-------------------5---|
||------------------------------------------------------------------|


           2x                   2x
-------------|--------------------||
-3-3---3---3-|-10-10----10----10--||
-----3---3---|-------10----10-----||
-------------|--------------------||


        Guitar solo      |1.
||-----------------------|-------------------------------------------
||-----3-------10\-------|-3--------3---10---------10---3--------3---
||-----------------------|-------3-------------10-------------3------
||-----------------------|-------------------------------------------


                        |2.                                        ||
------------------------|------------------------------------------||
-8--------8--5--------5-|-10---------10--12---------12--5--------5-||
-------8-----------5----|--------10-------------12------------5----||
------------------------|------------------------------------------||

Play the main riff a couple of times, then the riff behind the guitar
solo and then back to main riff with guitar solo lines. It's pretty
simple.
  development and support by
dmitry ivanov