rock
 
|tablatures   |lyrics   |discussion forums   |more tabs @ XGuitar.com

Black Sabbath tabs

Immaculate Deception guitar tab

Immaculate Deception
Black Sabbath - Cross Purposes (1994)


|--------------------------------------------------
|--------------------------------------------------
|--7-6-5---------------------2-------------2-------
|--7-6-5---7-6-5----5-----5--2-------------2-------
|--5-4-3---7-6-5----5-----5--0-------------0-------
|----------5-4-3-0--3--0--3-------3--0--3----------


 deception...
|------------------------------------------------------------------------
|------------------------------------------------------------------------
|-2-----------------------5------------2-----------------------5---------
|-2-------5-------3-------5------5-----2-------5-------3-------5------5--
|-0-------5-------3-------3--3p0-5-----0-------5-------3-------3--3p0-5--
|---------3-------1--------------3-------------3-------1--------------3--


|------------------------------------------------------------
|------------------------------------------------------------
|--------7------2------0p2----4p5----5-4-2---------7------2--
|-3------7------2------0p2----4p5----5-4-2--3------7------2--
|-3------5------0--0-0-----0-0----0-0-------3------5------0--
|-1-----------------------------------------1----------------

to where my spirit lies...
|-----------------------------------------------------------
|-----------------------------------------------------------
|-----------------------------------------------------------
|-3------5-------3------------------------------------------
|-3------5-------3-----------------------------------------
|-1------3-------1------------------------------------------




  development and support by
dmitry ivanov