rock
 
|tablatures   |lyrics   |discussion forums   |more tabs @ XGuitar.com

Black Sabbath tabs

I Won't Cry for You guitar tab

I Won't Cry For You
Black Sabbath - Forbidden (1995)

(keyboard - arranged for guitar)
|---------5-----------------------------5---------------------
|-------5---5-----8------6------------5---5-----8------6------
|-5---5-------5------5------5---5---5-------5------5------5---
|---7-----------7------7------7---7-----------7------7------7-
|-------------------------------------------------------------
|-------------------------------------------------------------

"and it feels like someones..."
|---------------------------------------5---------------------
|-------5-6----------6------8---------5---5-----8------6------
|-----7-----7----------5------7-5---5-------5------5------5---
|---7---------7---3------5--------7-----------7------7------7-
|-5-------------5---------------------------------------------
|-------------------------------------------------------------

"and it feels like you're drowning in your tears..."
|----------------------------------------------------
|-------5-6------------------------------------------
|-----7-----7----------------------------------------
|---7---------7------3-----2-------------------------
|-5-------------5------------------------------------
|--------------------------------1-------------------

"so i wont cry for you..."
|----------------------------------------------------------
|----------------------------------------------------------
|-12/14--2-2---10-10-10-10-10-10-10-10\--2-2---------------
|-12/14--2-2---10-10-10-10-10-10-10-10\--2-2---------------
|-10/12--0-0----8--8--8--8--8--8--8--8\--0-0---------------
|----------------------------------------------------------

Fills:
|-------------------------||--------8--------||--------------------|
|-------------------------||-8/10-----10-----||--------------------|
|-7^p5-5--7^-7-5---7^-5---||-------------7/9-||------------4^^4----|
|----------------7------7-||-----------------||-9^p7---5-7------7--|
|-------------------------||-----------------||--------------------|
|-------------------------||-----------------||--------------------|

"and it feels like someones treading on your shadows..."
|-----0-----0----------------------------------------------
|-------3-----3-------6-------8--------0-1-----------------
|---2-----2-----2---5---5---7---7----2---------------------
|-0---------------3-------5-------2--------3---------------
|---------------------------------0------------------------
|----------------------------------------------------------

"and it feels like yer drownign in yer tears..."
|--------------------------------
|-6------------------------------
|-7------------------------------
|-7-----------------------3------
|-5--------3-------2------3------
|-------------------------1------

***Progression behind solo***
D5 C#5 C5 B5 
D5 C#5 C5 B5 A#5 A5 E5(root)


  development and support by
dmitry ivanov