rock
 
|tablatures   |lyrics   |discussion forums   |more tabs @ XGuitar.com

Black Sabbath tabs

I Witness guitar tab

I Witness
Black Sabbath - Cross Purposes (1994)


|--3--4--5--6---7---8---9--10--11--12--13--14--15--15-----
|--6^-7^-8^-9^-10^-11^-12^-13^-14^-15^-16^-17^-18^-18^----
|---------------------------------------------------------
|---------------------------------------------------------
|---------------------------------------------------------
|---------------------------------------------------------

	  trill		trill        trill
|----------------------------------------------------------
|----------------------------------------------------------
|----------------------------------------------------------
|-----5--353535-----5--353535-----5--353535----------------
|----------------------------------------------------------
|-3-3-----------3-3-----------3-3-----------3--------------
|
|----------------------------------------------------------
|----------------------------------------------------------
|----------------------------------------------------------
|----------------------------------------------------------
|-----------1--------------1-------------1-----------------
|-3---1-2-3---1-3----1-2-3---1-3---1-2-3-------------------

across the desert...
|------------------------------------------------------------------
|------------------------------------------------------------------
|---------3----------------5---------------------------------------
|---5-5-5-3----------5-5-5-5---------------------------------------
|---5-5-5-1----------5-5-5-3-----------------------1-------------1-
|-1/3-3-3----------1/3-3-3---------------3---1-2-3---1-3---1-2-3---


|-------------------------------------|------------------------------------
|-------------------------------------|------------------------------------
|-------------------------------------|------------------------------------
|--8--7--7--7-7-8-----8--7--7--7-7-8--|--8--7--7--7-7-8--10--9--9--9-9-10--
|--6--6--6--6-6-6-----6--6--6--6-6-6--|--6--6--6--6-6-6---8--8--8--8-8--8--
|-------------------------------------|------------------------------------


|-----------------------------------------------------------------
|-----------------------------------------------------------------
|----3--8--7--3--3--5-5--------------3--8--7--3--3----------------
|-5--3--8--7--3--3--5-5-----------5--3--8--7--3--3--6-6-----------
|-5--1--6--5--1--1--3-3--3h5p3p0--5--1--6--5--1--1--6-6-----------
|-3-------------------------------3-----------------4-4-----------


  development and support by
dmitry ivanov