rock
 
|tablatures   |lyrics   |discussion forums   |more tabs @ XGuitar.com

Black Sabbath tabs

Heaven in Black guitar tab

Heaven In Black
Black Sabbath - TYR (1990)

Fig 1:
|----------------------------------------------------------
|----------------------------------------------------------
|--------5-----------------5-----------------5-------------
|----5-7-5-7-7-7-------5-7-5-7-7-7-------5-7-5-7-7-7-------
|--7---------7-7-----7---------7-7-----7---------7-7-------
|------------5-5---------------5-5---------------5-5-------

Fig 2:
|-------------------------------------------------------------
|-------------------------------------------------------------
|-------5------------------------------------5----------------
|---5-7---7------------------------------5-7---7--------------
|-7---------0-0-0--0-0-0--0-0-0--0-0-0-7---------0-0-0--0-0-0-
|-------------------------------------------------------------

1st time
Fig 3 Chorus:
|-3----1------------3----1---------------------------------
|-3----1------------3----1---------------------------------
|-4----2------------4----2---------------------------------
|-5----3------------5----3---2~----------------------------
|-5----3------------5----3------5--3-5-back to fig 2-------
|-3----1------------3----1---------------------------------

2nd time:                           
|-3----1------------3----1---------
|-3----1------------3----1---------
|-4----2------------4----2---------
|-5----3------------5----3---2~~~--
|-5----3------------5----3---------
|-3----1------------3----1---------

"into the black..."
|------------------------7----7-7-7-----5------------------
|---------------6-5------8----8-8-8-----6-------6-5--------
|-------7--5h7--5-4-7----7----7-7-7-----5--5h7--5-4-7------
|-------7--5h7------7----0----0-0-0-----0--5h7------7------
|-----7-5--------------------------------------------------
|-5-8------------------------------------------------------

--------------------------------------
-----6-5--------------6-5-------------
-7---5-4-7-------5h7--5-4-7-----------
-5-------7---10--5h7------7-----------
--------------8-----------------------
-----------------------------x(3)^----

|----------------------------------------------------------
|----------------------------------------------------------
|----------------------------------------------------------
|---------5-4-------4------------5-4---7---5-4-------------
|-----5-7-----7-5-----7------5-7-----7---------7-----------
|-0-----------------------0--------------------------------
|
|----------------------------------------------------------
|---------8-7-------7------------8-7---10--8-7-------------
|-----7-9-----9-7-----9------7-9-----9---------9-----------
|----------------------------------------------------------
|----------------------------------------------------------
|----------------------------------------------------------

|----------------------------------------------------------
|----------------------------------------------------------
|----------------------------------------------------------
|---------5-4-------4--------------------------------------
|-----5-7-----7-5-----7------------------------------------
|-0--------------------------------------------------------
|
|----------------------------------------------------------
|---------8-7-------7--------------------------------------
|-----7-9-----9-7-----9------------------------------------
|----------------------------------------------------------
|----------------------------------------------------------
|----------------------------------------------------------



  development and support by
dmitry ivanov