rock
 
|tablatures   |lyrics   |discussion forums   |more tabs @ XGuitar.com

Black Sabbath tabs

Heaven And Hell Guitar Solo guitar tab

Heaven And Hell - Guitar Solo
Black Sabbath - live-evil (1982)


This transcription covers the solo in Heaven And Hell 
from Live Evil, It goes from 5:00to about 9:00

There is a part that I will not tab just because 
of the fact that it is too damn hard.


|------------12--------------------------------------------
|-15^-15^-------15-12-------12-----------------------------
|---------------------15-14----14p12-----------------------
|------------------------------------14--------------------
|----------------------------------------------------------
|----------------------------------------------------------

|----------------------------------------------------------
|----------------------------------------------------------
|----------------------------------------------------------
|----------------------------------------------------------
|-14---12-\-10/12\10--12-10\9-7/9--10/12\10\9--------------
|---------------------------------------------10/12--------

5:13
|--------------------------------------------------------12-14-
|---------------AH---------------------------------12-15-------
|-12h14p12--11--11h12p11------------------------14-------------
|--------------------------------------------12----------------
|------------------------14--12\10/12--14-14-------------------
|--------------------------------------------------------------

|----------------------------------------------------------
|-15-12h15p12----12-------------------12-15----------------
|-------------14----12p11----(12)14^-----------------------
|-------------------------14-------------------------------
|----------------------------------------------------------
|----------------------------------------------------------

5:19
|----------------------------------------------------------
|-12-15-12h15p12----12----------12-------------------------
|----------------15----15-14-12----15p14-12----------------
|-------------------------------------------14-------------
|-------------------------------------------------16\14----
|----------------------------------------------------------
5:24
|----------------------14----------------------------------------
|-17^-17^--17\15-12-15----15-12h15p12----12----------12----------
|-------------------------------------14----15-14-12----14p12----
|-------------------------------------------------------------14-
|----------------------------------------------------------------
|----------------------------------------------------------------

|-----12----------------------------------------------------
|-12----12-15-^--15-15^-----15-12---------------------------
|---------------------------------15p14-12-14h15p14p12-14~~-
|-----------------------------------------------------------
|-----------------------------------------------------------
|-----------------------------------------------------------

5:33
|-12h15p12-------------------------------------------------
|----------15--12h15p12------------------------------------
|-----------------------14--12h14p12-----------------------
|------------------------------------14--12h14p12----------
|-------------------------------------------------14-------
|----------------------------------------------------------

|----------------------------------------------------15\12-
|----------------------------------------------15-17-------
|-------------12-11-11-12-14----14-14-14-14/16-------------
|-------12-14----------------------------------------------
|-12-14----------------------------------------------------
|----------------------------------------------------------

|----12/14----------------------------------------------------------
|-15-------15-12h15p12----12----------------------------------------
|----------------------15----15-14-12----12-------------------------
|-------------------------------------14----14----------------------
|----------------------------------------------14\12\10/12/14\12\10-
|-------------------------------------------------------------------

5:44
|------------------------------0--------0--------0--------0----
|--------------------------------------------------------------
|--------------------------------------------------------------
|-----------------14-14-14-12-12-12----------------------------
|-14--------------------------------14-14-14-12-12-12-10-10-10-
|-12-----------------------------------------------------------

|----0-----0--------0--0---0-0--0---0---0---0---0--0--0----
|----------------------------------------------------------
|------------------------------------------------------12--
|------------------------------------------------12-14-----
|-9-10\9-7-7------7--9--10--9-10-12--10--12--14------------
|----------------------------------------------------------

6:00
|-0-----0---0------0--------0----0---0---3-2---------------
|-3/5------------------------------------------------------
|-------4---2/4----5/7-------------------------------------
|-------------------------4----5---4---2-------------------
|----------------------------------------------------------
|--------------------------------------------3--2/3-0------

6:09
|----------------------------------------------------------
|------(12)-----------------(12)----12-15^~----------------
|-14-14-12~------------14-14-12~-14------------------------
|-----------14--12-14--------------------------------------
|----------------------------------------------------------
|----------------------------------------------------------

|----------------------------------------------------------
|-------------------------------------15-12-15-15^~~-------
|-14-14-12~--------------------x--14^----------------------
|-----------14-12-14---------------------------------------
|--------------------14\12-10------------------------------
|----------------------------------------------------------

|----------15-17-17^-17^--17-15h17p15----------------------
|----15-17----------------------------17-15h17p15----------
|-16----------------------------------------------16-------
|----------------------------------------------------------
|----------------------------------------------------------
|----------------------------------------------------------

|------------------------------------------------------------------
|------------------------------------------------------------------
|-14--12~----------------------------------------------------------
|---------14--12h14p12h14p12---------------------------------------
|----------------------------14-12h14p12h14p12-10-10h12p10h12p10-9-
|------------------------------------------------------------------

6:25
|----------------------------------------------------------
|----------------------------------------------------------
|----------------------------------------121412141214------
|---------------------------121412141214-------------------
|-101210121012-121412141214--------------------------------
|----------------------------------------------------------

|------------------15-15-12151215121512151215--------------
|-1215121512151215-----------------------------------------
|----------------------------------------------------------
|----------------------------------------------------------
|----------------------------------------------------------
|----------------------------------------------------------

|----------15-12-------------15-12-h-1512151215--------12-12-
|-12151215-------15-12151215--------------------15-12--------
|------------------------------------------------------------
|------------------------------------------------------------
|------------------------------------------------------------
|------------------------------------------------------------

6:34
|-15-12151215-----------------15-121512151215----------15--
|-------------15-12--12151215-----------------12151215-----
|----------------------------------------------------------
|----------------------------------------------------------
|----------------------------------------------------------
|----------------------------------------------------------

|-121512151215----------15-121512151215--------------------
|--------------12151215-----------------15-121512----------
|-------------------------------------------------14-12----
|----------------------------------------------------------
|----------------------------------------------------------
|----------------------------------------------------------

6:40
|-------------17^-17\15-----15-------------------------------
|-17^------15-----------17-----17-15-------------------------
|-------16---------------------------16\14-12----------------
|---------------------------------------------14-14\12-------
|------------------------------------------------------14-12-
|------------------------------------------------------------

|----------------------------------------------------------
|--------------------------------------------12\-----------
|--------------12p11-------------------------12\-----------
|--------12-14-------14------------------------------------
|-12--14---------------------------------------------------
|----------------------------------------------------------

From 7:00 to 7:20 - play really fast!!!

7:22
|----------------------------------------------------------
|-12-12--12-12---------------------------------------------
|-12-12--12-12---14-14-14--12-12-12--12-14-12-14-12~~------
|----------------14-14-14--12-12-12------------------------
|----------------------------------------------------------
|----------------------------------------------------------

|----------------------------------------------------------
|----------------------------------------------------------
|--------16^--------------14^^14-12-----------12-----------
|-14--12------^10---12-14---------------12-14----14-12-----
|------------------------------------------------------14--
|----------------------------------------------------------

|----------------------------------------------------------
|-----------------------about 7:35-------------------------
|----------------------------------------------------------
|----------------------------------------------------------
|-12-10--12--10/12--14-------------------------------------
|-------------------12-------------------------------------

7:41
|----------------------------------------------------------
|----------------------------------------------------------
|---------------------------12p11--------------------------
|-------------------12-14---------14-----------------------
|----------12-12/14------------------14--12----10-9-10-12--
|-12-14-15-------------------------------------------------

|----------------------12-12h15----------------------------
|----------------12h15----------12--12-15------------------
|----------12h14----------------------------12-14----------
|----12-14----------------------------------------12-14----
|-14-------------------------------------------------------
|----------------------------------------------------------

7:54
|--------------------------------------------------------------
|--------------------12-15--15-15--------------12-15-----12-15-
|-------------12h14^---------------12~--12-14^-------14^-------
|-------12-14--------------------------------------------------
|-12/14--------------------------------------------------------
|--------------------------------------------------------------

|----------------------------------------------------------
|-----12-15------------------------------------------------
|-14^-------14^-14-12--------------------------------------
|---------------------14-12--------------------------------
|---------------------------14-12-10-12-9-10-7-9-5-7-9-10--
|----------------------------------------------------------

|----------------------------------------------------------
|------------------------------------8:09------------------
|----------------12p11-------------------------------------
|----------12-14-------14----------------------------------
|-10-12-14----------------14p12\\--------------------------
|---------------------------------0------------------------

8:13 - hit note, then increase volume
|----------------------------------------------------------
|----------------------------------------------------------
|----------------------------------------------------------
|----------------------------------------------------------
|-7------9--10--12---\----5---5-/-7------------------------
|----------------------------------------------------------

|----------------------------------------------------------
|----------------------------------------------------------
|----------------------------------------------------------
|----------------------------------------------------------
|-7------9--10--12---\----5---5-/-7------------------------
|----------------------------------------------------------

|----------------------------------------------------------
|----------------------------------------------------------
|-9-----11--12--14--------7---7----------------------------
|-9-----11--12--14--------7---7--2-------------------------
|-7------9--10--12--------5---5--2-------------------------
|--------------------------------0-------------------------

|----------------------------------------------------------
|-12-12----------x-12--------------------------------------
|-12-12--12-12---x-12-12-12--------------------------------
|--------12-12--------12-12--------------------------------
|---------------------------2-2----------------------------
|---------------------------0-0----------------------------



  development and support by
dmitry ivanov