rock
 
|tablatures   |lyrics   |discussion forums   |more tabs @ XGuitar.com

Black Sabbath tabs

Hand Of Doom guitar tab

Hand Of Doom
Black Sabbath - Paranoid



|-------------overdubbed------------------10--------------
|-----------------------------------------13^-------------
|-------------7~~~~~--------------------------------------
|---------------------------------------------------------
|-3-3/5-5-5---5---5-5----------3-3/5-5-5---5---5-5--------
|---------------------3--4--5----------------------3-4-5--

**palm mute during the short notes here.
|-------------------------------------------------------
|-------------------------------------------------------
|---5--5--5--5-5--3----8--7-----5--5--5--5-5--3----8--3-
|--5--5--5--5--5--3----8--7----5--5--5--5--5--3----8--3-
|-3--3--3--3---3--1----6--5---3--3--3--3---3--1----6--1-
|-------------------------------------------------------


|-------------------------------------------------------
|-------------------------------------------------------
|--5-/-8---7------10---5---3---5------------------------
|--5-/-8---7---8--10---5---3---5------------------------
|--3-/-6---5---8---8---3---1---3------------------------
|--------------6----------------------------------------


|-------------------------------------------------------
|-------------------------------------------------------
|--5---8--10--12------5---8--10--12------5---8--10--12--
|--5---8--10--12------5---8--10--12------5---8--10--12--
|--3---6---8--10------3---6---8--10------3---6---8--10--
|-------------------------------------------------------


|-------------------------------|
|-------------------------------|
|--6\5--5--5--5--5--5--5--6\5---|
|--6\5--5--5--5--5--5--5--6\5---|
|--4\3--3--3--3--3--3--3--4\3---|
|-------------------------------|


Solo:
|------------------------------------------------------------
|------------------------------------------------------------
|-7h8-7~~--7h8h10-10-10p8p7----------------------------------
|---------------------------8p7----8p7----7-7-8p7----8p7-----
|-------------------------------10-----10---------10-----10--
|------------------------------------------------------------


|------------------------------------------------------------
|------------------------------------------------------------
|--------------8p7---7/8-8-8-7h8-8-10p8-7-8p7----7-----------
|-7h8h10-10-10----10--------------------------10---10p8-8-8--
|------------------------------------------------------------
|------------------------------------------------------------


|--------------------------------------------------------------
|--------------------------------------------------------------
|-8p7----7----8p7----7----8p7---8p7----7-8-10-10/12-12-12-12---
|-----10---10-----10---10-----10----10-------------------------
|--------------------------------------------------------------
|--------------------------------------------------------------


|------------------------------------------------------------
|------------------------------------------------------------
|-10\8-8-8p7-7-10p8-----------------------7-7-10p8p7-8p7-7---
|-------------------8p7--8p7--8p7--7h8h10--------------------
|----------------------10---10---10--------------------------
|------------------------------------------------------------


|------------------------------------------------------------
|------------------------------------------------------------
|---------------------------10p8-7-8p7-----------------------
|-8p7---7-7-8p7--7-7-8p7h10------------10-8-8-8-8/10--10-10--
|----10--------10--------------------------------------------
|------------------------------------------------------------


|-------------------------------------------------------
|-------------------------------------------------------
|--5-----3----------------------------------------------
|--5-----3-----5----------------------------------------
|--3-----1-----5----------------------------------------
|--------------3----------------------------------------


  development and support by
dmitry ivanov