rock
 
|tablatures   |lyrics   |discussion forums   |more tabs @ XGuitar.com

Black Sabbath tabs

Gypsy bass tab

Black Sabbath - Gypsy
Submitted By: syko
EMail: bmx_racer99@hotmail.com
Black Sabbath - Technical Ecstasy (1976)


        Intro               "She was a gypsy..." 1st part
||--------------------------||---------------------------------------|
||-----------6--------------||---------------------1--0-----3--------|
||--------6-----8----8p6h8--||---3--1--0--1-----1--------3-----3-----|
||---6----------------------||---------------1-----------------------|


                                2nd part, 2nd time after vocals enter
2nd part                        play one octave higher:
|-------------------------------|------------------8--7------10--\--||
|--------------------1--0-----3-|-10--8--7--8---8--------10---------||
|--3--1--0--1-----1--------3----|-------------8---------------------||
|--------------1----------------|-----------------------------------||


"She took me to..."
||------------------------------------------------------------------||
||------------------------------------------------------------------||
||----5---------7--5----------7--5----------5h7--5-9-7-5------------||
||---------5--7----------5--7----------5--7-------------------------||


"She took my hand..."      2x
||-------------------------------|----------------------------------||
||-------------------------------|----------------------------------||
||------------7--------------5---|----------------------------------||
||---5--7--8--------5--7--8------|---5--7--8--9-----5--7--8--8------||


"So you wanna be..."                    Fill - try variations of this:
||---------------------------------------|--------------------------||
||---7--7-7-7--7-7-7--7-7-7--7-----------|------------7-5-7-9-------||
||------------------------------8--8-8-8-|-7h8p7-8-10---------------||
||---------------------------------------|--------------------------||


Ending for previous riff and later ending the song - play E...
||------------------------------------------------------------------||
||------------------------------------7-----------------------------||
||---7-7-7-7-7-7-7-7-7-7-7-7-7-7-7----------------------------------||
||------------------------------------------------------------------||
  development and support by
dmitry ivanov