rock
 
|tablatures   |lyrics   |discussion forums   |more tabs @ XGuitar.com

Black Sabbath tabs

Get a Grip guitar tab

Get A Grip
Black Sabbath - Forbidden (1995)


|----------------------------------------------------------
|----------------------------------------------------------
|-----------------------5-------------------------5--------
|-----------------------5-------------------------5--------
|-------1---------1-----3---------1---------1-----3--------
|-1h2h3---3-1h2h3---3-------1h2h3---3-1h2h3---3------------

"that aint nice..."
|----------------------------------------------------------
|----------------------------------------------------------
|-------------/7--5-----------3-3---3/5--------------------
|-5---8--7/8--/7--5-----------3-3---3/5--------------------
|-5---8--7/8--/5--3---1-1-1-1-1-1p0-1/3--------------------
|-3---6--5/6----------------------------1-2-3--------------

|----------------------------------------------------------
|----------------------------------------------------------
|-------------3------------2-------------5-----------4-----
|-------------3------------2-------------5-----------4-----
|---0-1-1-1-1-1--1-0-0-0-0-0-0-1-3-3-3-3-3-3-2-2-2-2-2-----
|-3--------------------------------------------------------

"its up to you..."
|----------------------------------------------------------
|----------------------------------------------------------
|-2--------------5-----------2--------------5--------------
|-2----------5---5-----------2----------5---5--------------
|-0----------5---3-----------0----------5---3--------------
|------------3--------------------------3------------------

"here we go..."
|----------------------------------------------------------
|----------------------------------------------------------
|----/8--7-5-7-7/8\7----/8--7-5-7-7/8\7--------------------
|-7--/8--7-5-7-7/8\7-7--/8--7-5-7-7/8\7--------------------
|-7--/6--5-3-5-5/6\5-7--/6--5-3-5-5/6\5--------------------
|-5------------------5-------------------------------------


  development and support by
dmitry ivanov