rock
 
|tablatures   |lyrics   |discussion forums   |more tabs @ XGuitar.com

Black Sabbath tabs

Forbidden guitar tab

Forbidden
Black Sabbath - Forbidden

Tune Down alot

|----------------------------------------------------------
|----------------------------------------------------------
|-----------------------------------------------9----------
|-----------------------------------------------9----------
|-5-5-5-5-4---------------5-5-5-5-4-------------7----------
|-----------2-2-2-2-0---------------2-2-2-2-0-0------------

|----------------------------------------------------------
|----------------------------------------------------------
|---------------------------12-----------------------------
|---14\12-10-10-10-/14--12--12----14\12-10-10-10-/14--12---
|---14\12-10-10-10-/14--12--10----14\12-10-10-10-/14--12---
|-0-12\10--8--8--8-/12--10------0-12\10--8--8--8-/12--10---

"If I had to live again..."
|----------------------------------------------------------
|----------------------------------------------------------
|(12)-----------------------12\-----------------------12\--
|-12-----------8------------12\---------8-------------12\--
|-10------8h10---10-8h10-\\-10\----8h10---10-8h10-\\--10\--
|----------------------------------------------------------

Backing to solo:
|----------------------------------------------------------
|----------------------------------------------------------
|-12---9-----7-9-7-9---7h9---7h9---------------------------
|-12---9-----7-9-7-9---7h9---7h9--0---0---0---0---0--------
|-10---7-----5-7-5-7---7-----7-----------------------------
|-----------------------------------7---6---5---3---2^-0---
Solo:
|----------------------------------------------------------
|--------------------15^--15^-15^--^15-12-15^-15^-15^------
|-12-14^^14-12---------------------------------------------
|-----------------14---------------------------------------
|----------------------------------------------------------
|----------------------------------------------------------

|----15^--15p12---------12------------------------------------
|-12------------15^--------15p12------------------------------
|--------------------------------15-14h15p14-12-14-12-14^-14^-
|-------------------------------------------------------------
|-------------------------------------------------------------
|-------------------------------------------------------------

|-----------17^---15~~--\-----
|-----------------------------
|-^14-12----------------------
|--------14-------------------
|-----------------------------
|-----------------------------



  development and support by
dmitry ivanov