rock
 
|tablatures   |lyrics   |discussion forums   |more tabs @ XGuitar.com

Black Sabbath tabs

Fluff guitar tab

Fluff
Black Sabbath - Sabbath, Bloody Sabbath (1974)

 Gtr.I
|------------2------------------2-------|----------2-----------------2-------|
|--------3------3------------3-----3----|-------0-----0-----------0-----0----|
|----2--------------2-----2-----------2-|----0-----------0-----0-----------0-|
|-0--------------------0----------------|-0-----------------0----------------|
|---------------------------------------|------------------------------------|
|---------------------------------------|------------------------------------|

 Gtr.I
|------------2------------------2-------|----------2-----------------2-------|
|--------3------3------------3-----3----|-------0-----0-----------0-----0----|
|----2--------------2-----2-----------2-|----0-----------0-----0-----------0-|
|-0--------------------0----------------|-0-----------------0----------------|
|---------------------------------------|------------------------------------|
|---------------------------------------|------------------------------------|
|				  	|	 			     |
|Gtr.II					|				     |
|---------------------------------------|------------------------------------|
|---------------------------------------|------------------------------------|
|---------------------------------------|------------------------------------|
|-4-5-7------------(7)-------------7/9--|------------------------------------|
|---------------------------------------|-7--------------(7)-----------------|
|---------------------------------------|------------------------------------|

 Gtr.I
|----------2-----------------2--------|----------2-----------------2-----3--|
|-------3-----3-----------3-----3-----|-------0-----0-----------0-----0-----|
|----2-----------2-----2-----------2--|----0-----------0-----0--------------|
|-0-----------------0-----------------|-0-----------------0-----------------|
|-------------------------------------|-------------------------------------|
|-------------------------------------|-------------------------------------|
|                                     |                                     |
|Gtr.II                               |                                     |
|-------------------------------------|-------------------------------------|
|-------------------------------------|-------------------------------------|
|-------------------------------------|-------------------------------------|
|-4-5-7------------(7)-----------7/9--|---------------------------------7-6-|
|-------------------------------------|-7----------------(7)----------------|
|-------------------------------------|-------------------------------------|

 Gtr.I
|------------3------------------3-------|----------3-----------------3-------|
|--------0------0------------0-----0----|-------2-----2-----------2-----2----|
|----0--------------0-----0-----------0-|----2-----------2-----2-----------2-|
|-2--------------------2----------------|-2-----------------2----------------|
|---------------------------------------|------------------------------------|
|---------------------------------------|------------------------------------|
|					|				     |
|Gtr.II                 		|	                             |
|---------------------------------------|------------------------------------|
|---------------------------------------|------------------------------------|
|---------------------------------------|------------------------------------|
|-5---------(5)--------7--------7/9-----|-7----------------(7)-----------7-6-|
|---------------------------------------|------------------------------------|
|---------------------------------------|------------------------------------|
|					|				     |
|Gtr.III				|				     |
|------0--------0--------0--------0-----|-------0-------0-------0-------0----|
|----0---0----0---0----0---0----0---0---|-----0---0---0---0---0---0---0---0--|
|---7-----7--7-----7--7-----7--7-----7--|----9-------9-------9-------9-------|
|--5--------5--------5--------5---------|---7-------7-------7-------7--------|
|---------------------------------------|--0-------0-------0-------0---------|
|---------------------------------------|------------------------------------|



 Gtr.I
|------------3------------------3-------|----------3-----------------3-------|
|--------0------0------------0-----0----|-------2-----2-----------2-----2----|
|----0--------------0-----0-----------0-|----2-----------2-----2-----------2-|
|-2--------------------2----------------|-2-----------------2----------------|
|---------------------------------------|------------------------------------|
|---------------------------------------|------------------------------------|
|					|				     |
|Gtr.II                 		|	                             |
|---------------------------------------|------------------------------------|
|---------------------------------------|------------------------------------|
|---------------------------------------|------------------------------------|
|-5---------(5)--------4----------------|------------------------------------|
|-------------------------------5-------|-5/7--------------(7)---------------|
|---------------------------------------|------------------------------------|
|					|			  	     |
|Gtr.III				|			     	     |
|------0--------0--------0--------0-----|-------0-------0-------0-------0----|
|----0---0----0---0----0---0----0---0---|-----0---0---0---0---0---0---0---0--|
|---7-----7--7-----7--7-----7--7-----7--|----9-------9-------9-------9-------|
|--5--------5--------5--------5---------|---7-------7-------7-------7--------|
|---------------------------------------|--0-------0-------0-------0---------|
|---------------------------------------|------------------------------------|



 Gtr.I
|------------2------------------2-------|----------2-----------------2-------|
|--------3------3------------3-----3----|-------0-----0-----------0-----0----|
|----2--------------2-----2-----------2-|----0-----------0-----0-----------0-|
|-0--------------------0----------------|-0-----------------0----------------|
|---------------------------------------|------------------------------------|
|---------------------------------------|------------------------------------|
|					|	 		     	     |
|Gtr.II					|				     |
|---------------------------------------|------------------------------------|
|---------------------------------------|------------------------------------|
|---------------------------------------|------------------------------------|
|-4-5-7------------(7)-------------7/9--|------------------------------------|
|---------------------------------------|-7--------------(7)-----------------|
|---------------------------------------|------------------------------------|
|				 	|				     |
|Gtr.III				|Gtr.IV    			     |
|---------------------------------------|------------------------------------|
|---------------------------------------|--------------10-----10\8-----------|
|-------------------9-\-7---------------|---------9/11----11--11\9-----------|
|----------------9-(9)\-7---------------|------------------------------------|
|--------------0-------(0)--------------|------------------------------------|
|---------------------------------------|------------------------------------|





 Gtr.I
|----------2-----------------2--------|----------2-----------------2-----3--|
|-------3-----3-----------3-----3-----|-------0-----0-----------0-----0-----|
|----2-----------2-----2-----------2--|----0-----------0-----0--------------|
|-0-----------------0-----------------|-0-----------------0-----------------|
|-------------------------------------|-------------------------------------|
|-------------------------------------|-------------------------------------|
|                                     |                                     |
|Gtr.II                               |                                     |
|-------------------------------------|-------------------------------------|
|-------------------------------------|-------------------------------------|
|-------------------------------------|-------------------------------------|
|-4-5-7------------(7)-----------7/9--|---------------------------------7-6-|
|-------------------------------------|-7----------------(7)----------------|
|-------------------------------------|-------------------------------------|
|				      |					    |
|Gtr.III			      |	                  		    |
|-------------------------------------|-------------------------------------|
|-------------------------------------|-------------------------------------|
|-------------------9-\-7-------------|-------------------------------------|
|----------------9-(9)\-7-------------|-------------------------------------|
|--------------0-------(0)------------|-------------------------------------|
|-------------------------------------|-------------------------------------|
|				      |				            |
|Gtr.IV				      |					    |
|-------------------------------------|-------------------------------------|
|---------12\10----10/12\10-----------|----------------10--12---------------|
|-------------------------------------|----------9/11----------11\9---------|
|-------------------------------------|-------------------------------------|
|-------------------------------------|-------------------------------------|
|-------------------------------------|-------------------------------------|




 Gtr.I
|------------3------------------3-------|----------3-----------------3-------|
|--------0------0------------0-----0----|-------2-----2-----------2-----2----|
|----0--------------0-----0-----------0-|----2-----------2-----2-----------2-|
|-2--------------------2----------------|-2-----------------2----------------|
|---------------------------------------|------------------------------------|
|---------------------------------------|------------------------------------|
|					|				     |	     
|Gtr.II                                 |	                             |
|---------------------------------------|------------------------------------|
|---------------------------------------|------------------------------------|
|---------------------------------------|------------------------------------|
|-5---------(5)--------7--------7/9-----|-7----------------(7)-----------7-6-|
|---------------------------------------|------------------------------------|
|---------------------------------------|------------------------------------|
|					|				     |		     
|Gtr.III			 	|			 	     |     
|------0--------0--------0--------0-----|-------0-------0-------0-------0----|
|----0---0----0---0----0---0----0---0---|-----0---0---0---0---0---0---0---0--|
|---7-----7--7-----7--7-----7--7-----7--|----9-------9-------9-------9-------|
|--5--------5--------5--------5---------|---7-------7-------7-------7--------|
|---------------------------------------|--0-------0-------0-------0---------|
|---------------------------------------|------------------------------------|
|					|				     |
|Gtr.IV				   	|				     |
|---------------------------------------|------------------------------------|
|---------------------------------------|------------------------------------|
|---------------------------------------|-------(11)--11--(11)---------------|
|---------------------------------------|------------------------------------|
|---------------------------------------|------------------------------------|
|---------------------------------------|------------------------------------|





 Gtr.I
|------------3------------------3-------|----------3-----------------3-------|
|--------0------0------------0-----0----|-------2-----2-----------2-----2----|
|----0--------------0-----0-----------0-|----2-----------2-----2-----------2-|
|-2--------------------2----------------|-2-----------------2----------------|
|---------------------------------------|------------------------------------|
|---------------------------------------|------------------------------------|
|					|				     |
|Gtr.II                 		|	                             |
|---------------------------------------|------------------------------------|
|---------------------------------------|------------------------------------|
|---------------------------------------|------------------------------------|
|-5---------(5)--------4----------------|------------------------------------|
|-------------------------------5-------|-5/7--------------(7)---------------|
|---------------------------------------|------------------------------------|
|					|				     |
|Gtr.III				|				     |	    
|------0--------0--------0--------0-----|-------0-------0-------0-------0----|
|----0---0----0---0----0---0----0---0---|-----0---0---0---0---0---0---0---0--|
|---7-----7--7-----7--7-----7--7-----7--|----9-------9-------9-------9-------|
|--5--------5--------5--------5---------|---7-------7-------7-------7--------|
|---------------------------------------|--0-------0-------0-------0---------|
|---------------------------------------|------------------------------------|



Gtr.I
|------------3------------------2-------|----------3--------2--------3-------|
|--------3------3------------3-----3----|-------0-----0--------0--------0----|
|----4-------------4------4-----------4-|----0-----------0-----------------0-|
|-5--------------------4----------------|-2-----------------------2----------|
|---------------------------------------|------------------------------------|
|---------------------------------------|------------------------------------|
|					|				     |
|Gtrs II & III				|				     |
|---------------------------------------|------------------------------------|
|-------------------------------------8-|------------------------------------|
|------------0--2--4---4/7--------7/9---|-9\7------------4--4/7--------------|
|---------------------------------------|------------------------------------|
|---------------------------------------|------------------------------------|
|---------------------------------------|------------------------------------|
|					|				     |
|Gtr.IV					|				     |
|---------------------------------------|------------------------------------|
|---------------------------------------|------------------------------------|
|---------------------------------------|---------------------11-11b(12)-(11)|
|---------------------------------------|------------------------------------|
|---------------------------------------|------------------------------------|
|---------------------------------------|------------------------------------|






 Gtr.I
|------------3------------------2-------|----------3--------2--------3-------|
|--------3------3------------3-----3----|-------0-----0--------0--------0----|
|----4-------------4------4-----------4-|----0-----------0-----------------0-|
|-5--------------------4----------------|-2-----------------------2----------|
|---------------------------------------|------------------------------------|
|---------------------------------------|------------------------------------|
|					|				     |
|Gtrs II & III				|				     |
|---------------------------------------|------------------------------------|
|-------------------------------------8-|------------------------------------|
|------------0--2--4---4/7--------7/9---|-9\7------------4--4/7--------------|
|---------------------------------------|------------------------------------|
|---------------------------------------|------------------------------------|
|---------------------------------------|------------------------------------|
|					|				     |
|Gtr.IV					|				     |
|---------------------------------------|------------------------------------|
|---------------------------------------|------------------------------------|
|---------------------------------------|---------------------11-11b(12)-(11)|
|---------------------------------------|------------------------------------|
|---------------------------------------|------------------------------------|
|---------------------------------------|------------------------------------|




 Gtr.I
|------------------------------2--------|----------0-----------------0-------|
|-----------1---------------3-----3-----|-------0-----0-----------0-----0----|
|--------2-----2---------4-----------4--|----0-----------0-----0-----------0-|
|-----2-----------2---4-----------------|-2-----------------2----------------|
|--0------------------------------------|------------------------------------|
|---------------------------------------|------------------------------------|
|					|				     |
|Gtrs II & III				|				     |
|---------------------------------------|------------------------------------|
|---------------------------------------|------------------------------------|
|-----------5--4--5--7------------------|-------2/4--2/4\2--0--2/4-----------|
|---------------------------------------|------------------------------------|
|---------------------------------------|------------------------------------|
|---------------------------------------|------------------------------------|

 Gtr.I
|------------------------------2--------|----------2-----------------2-------|
|--------1--1---------------3-----3-----|-------3-----3-----------2-----2----|
|--------------0---------2-----------2--|----4-----------4-----4-----------4-|
|----(2)----------2---0-----------------|-4-----------------4----------------|
|-(3)-----------------------------------|------------------------------------|
|---------------------------------------|------------------------------------|
|					|				     |
|Gtrs II & III				|				     |
|---------------------------------------|------------------------------------|
|---------------------------------------|----------------------------------3-|
|--5-----------4--5--7------------------|-------6--6-----4--4\2--------2/4---|
|---------------------------------------|------------------------------------|
|---------------------------------------|------------------------------------|
|---------------------------------------|------------------------------------|
|					|				     |
|Gtr.IV					|				     |
|---------------------------------------|------------------------------------|
|---------------------------------------|------------------------------------|
|-----------------------------9b(11)--7-|-9----------------------------------|
|---------------------------------------|------------------------------------|
|---------------------------------------|------------------------------------|
|---------------------------------------|------------------------------------|




 



 Gtr.I
|---------------------3--------3--------|
|-----------2------------2--------2-----|
|--------2-----2------------2--------2--|
|-----2-----------2---------------------|
|--0------------------------------------|
|---------------------------------------|
|					|
|Gtrs II & III				|
|---------------------------------------|
|---------------------------------------|
|--4\2--------------(2)-----------------|
|---------------------------------------|
|---------------------------------------|
|---------------------------------------|
|					|
|Gtr.IV					|
|---------------------------------------|
|-------10--10--(10)--10/12--10\8-------|
|---------------------------------------|
|---------------------------------------|
|---------------------------------------|
|---------------------------------------|





 Gtr.I
|------------2------------------2-------|----------2-----------------2-------|
|--------3------3------------3-----3----|-------0-----0-----------0-----0----|
|----2--------------2-----2-----------2-|----0-----------0-----0-----------0-|
|-0--------------------0----------------|-0-----------------0----------------|
|---------------------------------------|------------------------------------|
|---------------------------------------|------------------------------------|
|					|				     |
|Gtr.II					|				     |
|---------------------------------------|------------------------------------|
|---------------------------------------|------------------------------------|
|---------------------------------------|------------------------------------|
|-4-5-7------------(7)-------------7/9--|------------------------------------|
|---------------------------------------|-7--------------(7)-----------------|
|---------------------------------------|------------------------------------|
|					|				     |
|Gtr.III				|Gtr.IV    		             |
|---------------------------------------|------------------------------------|
|---------------------------------------|--------------10-----10\8-----------|
|-------------------9-\-7---------------|---------9/11----11--11\9-----------|
|----------------9-(9)\-7---------------|------------------------------------|
|--------------0-------(0)--------------|------------------------------------|
|---------------------------------------|------------------------------------|






 Gtr.I
|----------2-----------------2--------|----------2-----------------2-----3--|
|-------3-----3-----------3-----3-----|-------0-----0-----------0-----0-----|
|----2-----------2-----2-----------2--|----0-----------0-----0--------------|
|-0-----------------0-----------------|-0-----------------0-----------------|
|-------------------------------------|-------------------------------------|
|-------------------------------------|-------------------------------------|
|                                     |                                     |
|Gtr.II                               |                                     |
|-------------------------------------|-------------------------------------|
|-------------------------------------|-------------------------------------|
|-------------------------------------|-------------------------------------|
|-4-5-7------------(7)-----------7/9--|---------------------------------7-6-|
|-------------------------------------|-7----------------(7)----------------|
|-------------------------------------|-------------------------------------|
|				      |					    |
|Gtr.III			      |	                  		    |
|-------------------------------------|-------------------------------------|
|-------------------------------------|-------------------------------------|
|-------------------9-\-7-------------|-------------------------------------|
|----------------9-(9)\-7-------------|-------------------------------------|
|--------------0-------(0)------------|-------------------------------------|
|-------------------------------------|-------------------------------------|
|				      |					    |
|Gtr.IV				      |					    |
|-------------------------------------|-------------------------------------|
|---------10/12\10----10/12\10--------|----------12--10-------10-\-8--------|
|-------------------------------------|------------------11--(11)\-9--------|
|-------------------------------------|-------------------------------------|
|-------------------------------------|-------------------------------------|
|-------------------------------------|-------------------------------------|

 Gtr.I
|------------3------------------3-------|----------3-----------------3-------|
|--------0------0------------0-----0----|-------2-----2-----------2-----2----|
|----0--------------0-----0-----------0-|----2-----------2-----2-----------2-|
|-2--------------------2----------------|-2-----------------2----------------|
|---------------------------------------|------------------------------------|
|---------------------------------------|------------------------------------|
|					|				     |
|Gtr.II                 		|	                             |
|---------------------------------------|------------------------------------|
|---------------------------------------|------------------------------------|
|---------------------------------------|------------------------------------|
|-5---------(5)--------7--------7/9-----|-7----------------(7)-----------7-6-|
|---------------------------------------|------------------------------------|
|---------------------------------------|------------------------------------|
|					|				     |
|Gtr.III				|				     |
|------0--------0--------0--------0-----|-------0-------0-------0-------0----|
|----0---0----0---0----0---0----0---0---|-----0---0---0---0---0---0---0---0--|
|---7-----7--7-----7--7-----7--7-----7--|----9-------9-------9-------9-------|
|--5--------5--------5--------5---------|---7-------7-------7-------7--------|
|---------------------------------------|--0-------0-------0-------0---------|
|---------------------------------------|------------------------------------|
|					|				     |
|Gtr.IV					|				     |
|---------------------------------------|------------------------------------|
|---------------------------------------|------------------------------------|
|---------------------------------------|---------12\11-----(11)-------------|
|---------------------------------------|------------------------------------|
|---------------------------------------|------------------------------------|
|---------------------------------------|------------------------------------|




 Gtr.I
|------------3------------------3-------|----------3-----------------3-------|
|--------0------0------------0-----0----|-------2-----2-----------2-----2----|
|----0--------------0-----0-----------0-|----2-----------2-----2-----------2-|
|-2--------------------2----------------|-2-----------------2----------------|
|---------------------------------------|------------------------------------|
|---------------------------------------|------------------------------------|
|					|				     |
|Gtr.II                 		|	                             |
|---------------------------------------|------------------------------------|
|---------------------------------------|------------------------------------|
|---------------------------------------|------------------------------------|
|-5---------(5)--------4----------------|------------------------------------|
|-------------------------------5-------|-5/7--------------(7)---------------|
|---------------------------------------|------------------------------------|
|					|		 		     |
|Gtr.III				|				     |
|------0--------0--------0--------0-----|-------0-------0-------0-------0----|
|----0---0----0---0----0---0----0---0---|-----0---0---0---0---0---0---0---0--|
|---7-----7--7-----7--7-----7--7-----7--|----9-------9-------9-------9-------|
|--5--------5--------5--------5---------|---7-------7-------7-------7--------|
|---------------------------------------|--0-------0-------0-------0---------|
|---------------------------------------|------------------------------------|



 Gtr.I
|------------2------------------2-------|----------2-----------------2-------|
|--------3------3------------3-----3----|-------0-----0-----------0-----0----|
|----2--------------2-----2-----------2-|----0-----------0-----0-----------0-|
|-0--------------------0----------------|-0-----------------0----------------|
|---------------------------------------|------------------------------------|
|---------------------------------------|------------------------------------|
|					|				     |
|Gtr.II					|				     |
|---------------------------------------|------------------------------------|
|---------------------------------------|------------------------------------|
|---------------------------------------|------------------------------------|
|-4-5-7------------(7)-------------7/9--|------------------------------------|
|---------------------------------------|-7--------------(7)-----------------|
|---------------------------------------|------------------------------------|
|					|				     |
|Gtr.III				|Gtr.IV    			     |
|---------------------------------------|------------------------------------|
|---------------------------------------|---------8/10--10-----10\8----------|
|-------------------9-\-7---------------|---------9/11-----11--11\9----------|
|----------------9-(9)\-7---------------|------------------------------------|
|--------------0-------(0)--------------|------------------------------------|
|---------------------------------------|------------------------------------|



 Gtr.I
|----------2-----------------2--------|----------2-----------------2-----3--|
|-------3-----3-----------3-----3-----|-------0-----0-----------0-----0-----|
|----2-----------2-----2-----------2--|----0-----------0-----0--------------|
|-0-----------------0-----------------|-0-----------------0-----------------|
|-------------------------------------|-------------------------------------|
|-------------------------------------|-------------------------------------|
|                                     |                                     |
|Gtr.II                               |                                     |
|-------------------------------------|-------------------------------------|
|-------------------------------------|-------------------------------------|
|-------------------------------------|-------------------------------------|
|-4-5-7------------(7)-----------7/9--|---------------------------------7-6-|
|-------------------------------------|-7----------------(7)----------------|
|-------------------------------------|-------------------------------------|
|				      |				 	    |
|Gtr.III			      |	                  		    |
|------------------------------------ |-------------------------------------|
|-------------------------------------|-------------------------------------|
|-------------------9-\-7-------------|-------------------------------------|
|----------------9-(9)\-7-------------|-------------------------------------|
|--------------0-------(0)------------|-------------------------------------|
|-------------------------------------|-------------------------------------|
|				      |					    |
|Gtr.IV				      |					    |
|-------------------------------------|-------------------------------------|
|---------10/12\10------10/12\10------|-----------------10--12--------------|
|-------------------12----------------|-----------9/11----------11\9--------|
|-------------------------------------|-------------------------------------|
|-------------------------------------|-------------------------------------|
|-------------------------------------|-------------------------------------|





 Gtr.I
|------------3------------------3-------|----------3-----------------3-------|
|--------0------0------------0-----0----|-------2-----2-----------2-----2----|
|----0--------------0-----0-----------0-|----2-----------2-----2-----------2-|
|-2--------------------2----------------|-2-----------------2----------------|
|---------------------------------------|------------------------------------|
|---------------------------------------|------------------------------------|
|					|				     |
|Gtr.II                 		|	 	                     |
|---------------------------------------|------------------------------------|
|---------------------------------------|------------------------------------|
|---------------------------------------|------------------------------------|
|-5---------(5)--------7--------7/9-----|-7----------------(7)-----------7-6-|
|---------------------------------------|------------------------------------|
|---------------------------------------|------------------------------------|
|					|		         	     |
|Gtr.III				|				     |
|------0--------0--------0--------0-----|-------0-------0-------0-------0----|
|----0---0----0---0----0---0----0---0---|-----0---0---0---0---0---0---0---0--|
|---7-----7--7-----7--7-----7--7-----7--|----9-------9-------9-------9-------|
|--5--------5--------5--------5---------|---7-------7-------7-------7--------|
|---------------------------------------|--0-------0-------0-------0---------|
|---------------------------------------|------------------------------------|





 Gtr.I
|------------3------------------3-------|----------3-----------------3-------|
|--------0------0------------0-----0----|-------2-----2-----------2-----2----|
|----0--------------0-----0-----------0-|----2-----------2-----2-----------2-|
|-2--------------------2----------------|-2-----------------2----------------|
|---------------------------------------|------------------------------------|
|---------------------------------------|------------------------------------|
|					|				     |
|Gtr.II                 		|	                             |
|---------------------------------------|------------------------------------|
|---------------------------------------|------------------------------------|
|---------------------------------------|------------------------------------|
|-5---------(5)--------4----------------|------------------------------------|
|-------------------------------5-------|-5/7--------------(7)---------------|
|---------------------------------------|------------------------------------|
|					|				     |
|Gtr.III				|				     |
|------0--------0--------0--------0-----|-------0-------0-------0-------0----|
|----0---0----0---0----0---0----0---0---|-----0---0---0---0---0---0---0---0--|
|---7-----7--7-----7--7-----7--7-----7--|----9-------9-------9-------9-------|
|--5--------5--------5--------5---------|---7-------7-------7-------7--------|
|---------------------------------------|--0-------0-------0-------0---------|
|---------------------------------------|------------------------------------|

 Gtr.I
|---------------------------------------|
|--^3-----------------------------------|
|--^2-----------------------------------|
|--^0-----------------------------------|
|--^0-----------------------------------|
|---------------------------------------|
|					|
|Gtr.II					|
|---------------------------------------|
|---------------------------------------|
|---------------------------------------|
|---5p4---------------------------------|
|--------5------------------------------|
|---------------------------------------|



  development and support by
dmitry ivanov