rock
 
|tablatures   |lyrics   |discussion forums   |more tabs @ XGuitar.com

Black Sabbath tabs

Feels Good to Me guitar tab

Feels Good To Me
Black Sabbath - TYR (1990)

"the chapter is opened..."
|-------0-------0------0-----------------------------------
|-----3---3-------3-----(3)-------3-1----------0----1------
|---2-------2--------2----------0----(0)-----2----2--(2)---
|-0---------------------------2------------2---------------
|---------------------------3------------0-----------------
|----------------------------------------------------------
"the writing say manu things.."
|-------0-------0------0-----------------------------------
|-----3---3-------3-----(3)-------3-1----------0-------0---
|---2-------2--------2----------0----(0)-----2-------------
|-0---------------------------2------------2---------0-----
|---------------------------3------------0---------2-------
|------------------------------------------------3---------
"where can we run to now..."
|-------0-------0------0-----------------------------------
|-----3---3-------3-----(3)-------3-1----------0----1------
|---2-------2--------2----------0-----0------2----2--------
|-0---------------------------2------------2---------------
|---------------------------3------------0-----------------
|----------------------------------------------------------
"when its lost..."
|-------0-------0------0----------------------(0-----------
|-----3---3-------3-----(3)-------3-1----(1---)3-[strum]---
|---2-------2--------2----------0-----0--)2---(2-----------
|-0---------------------------2----------(2---)0-----------
|---------------------------3------------)0----------------
|----------------------------------------------------------
"the world is turning..."
|-----------------------------0-------------------------------0-------
|---------3-------3---------0---0-8-------3-------3---------0---0-8---
|-----------0-------0-----5---------5-------0-------0-----5---------5-
|-------2-------0-------7---------------2-------0-------7-------------
|-0-2-3-------2-------0---------------3-------2-------0---------------
|---------------------------------------------------------------------

|-------0------------------
|-----3---3-----3---3------
|---2-------------0-0------
|-0-----------2-----0------
|-----------3-------2------
|-------------------3------

|---------------------3--3------------------------3----------
|---------------------3--3------------------------3----------
|---------------------0--0------------------------0----------
|---------------------0--0------------------------0----------
|-----------3---------x--x--------------3---------x--3--2----
|-5--5--3-5---5\-(0)--3--3----5--5--3-5---5\-(0)--3--------3-back to 1st 
                                                             progression
|----------------------------------------------------------
|----------------------------------------------------------
|---14---17\16--/14\9-----------9\7/9-----14---------------
|14-------------------------------------------/14-12-/14---
|---12---15\14--/12\7-----------7\5/7-(0)-12---------------
|12-------------------------------------------/12-10-/12---

|------------------------------------5----------------------
|--------------------------------8^----8-5------------------
|------------------------------------------7^-7^--7p5--7p5--
|----10-9--10/12-/14---------------------------------7----7-
|-12-----------------12-12---\------------------------------
|-----------------------------------------------------------

That's all I can give you of the solo, the rest in based in A.


  development and support by
dmitry ivanov