rock
 
|tablatures   |lyrics   |discussion forums   |more tabs @ XGuitar.com

Black Sabbath tabs

Falling off the Edge of the World guitar tab

Falling Off The Edge Of The World
Black Sabbath - Mob Rules (1981)


|------------------------------------------
|------------------------------------------
|-------0-2---0-----------------0-2---0----
|-----4-----4-----------------4-----4------
|---2-----------------------2--------------
|-0-----------------------0----------------


|----------0-----0------------------------|--5--------------
|--------0---0---------------5---6--------|----5------------
|------5-------5-----------5-------5------|------5----------
|----7-------------------7-----------7----|--------7--------
|--0-------------------0------------------|-----------------
|-----------------------------------------|-----------------


|------------------------------------------------------------
|------------------------------------------------------------
|--9-------12-11--7-7-------9-----12\11----14-----7----------
|--9-------12-11--7-7-------9-----12\11-12-14-----7----------
|--7-------10--9--5-5-------7-----10\-9-12-12-----5----------
|--0------------------------0-----------10-------------------


|--------------------------------------------------------
|--------------------------------------------------------
|--9-------12-11--7-7--------7-6-5----12---7-------------
|--9-------12-11--7-7--------7-6-5----12---7--2----------
|--7-------10--9--5-5--------5-4-3----10---5--2----------
|--0------------------------------------------0----------


|-----------------------------------------------------------------------
|-----------------------------------------------------------------------
|----------------------------------------------------------5-5-4--------
|-------4-5-4h5p4----------4-5-7--5p4----------4-5-4h5p4---5-5-4-5-4-2--
|-7--7------------5--7--7-------------5--7--7------------5-3-3-2-5-4-2--
|-0------------------0-------------------0-----------------------3-2-0--



|----------------------------------------------------------
|----------------------------------------------------------
|----------------------------------------------------------
|----------------------------------------------------------
|----------------------------------------------------------
|----------------------------------------------------------


  development and support by
dmitry ivanov