rock
 
|tablatures   |lyrics   |discussion forums   |more tabs @ XGuitar.com

Black Sabbath tabs

Evil Woman guitar tab

Evil Woman
Black Sabbath - Black Sabbath (1970)

|--------------------------------------------
|----------------6~--------------------------
|-7-----------/5-----------8-7-8p7-----------
|-7-------3------------6-----------10----8---
|-5-------3------------6---------------------
|---------1------------4---------------------

Verse:
|---------------||---------------||---------------|
|---------------||---------------||---------------|
|---------------||-7---9---------||---------------|
|-3---5-- X 12 -||-7---9-- X 4 --||-3---5-- X 4 --|
|-3---5---------||-5---7---------||-3---5---------|
|-1---3---------||---------------||-1---3---------|

"Evil woman don't you play..."
|-------------------------------
|-------------------------------
|-------------------------------
|-5--5--3--3--6--6--8--8--------
|-5--5--3--3--6--6--8--8--------
|-3--3--1--1--4--4--6--6--------

Pre-solo:
|----------------------------------------------------------
|----------------------------------------------------------
|----------------------------------------------------------
|----------------------------------------------------------
|----------------------------------------------------------
|-1-1-1-1-1-1-1-1-1-1-1-1-1-1-1-1-1-1-1-1-1-1-1-1-1-1-1-1--

Solo:
|---------------------------------|-----12-------------12----15^-
|-3-5-5^--------------------------|-15^----15-12----12----15-----
|-3-5-5^--5--3--5p3---------------|--------------14^-------------
|-------------------5-5--\-- X 2 -|------------------------------
|---------------------------------|------------------------------
|---------------------------------|------------------------------

|-12-----------12-------12--------------12--------------
|----15-----12----15-12----15p12-----12----15p12--------
|-------14^----------------------14^-------------14-12~-
|-------------------------------------------------------
|-------------------------------------------------------
|-------------------------------------------------------

|--------12-15p12--------------------12---------------
|-----12----------15-15p12--------12----15p12---------
|-14^----------------------14-14^-------------14-12~--
|-----------------------------------------------------
|-----------------------------------------------------
|-----------------------------------------------------

|----------------------------12------12-----12------
|----------------------12h15-------12-----12---15^--
|----------------12-14^---------14^----14^----------
|-14p12----12h14------------------------------------
|-------14------------------------------------------
|---------------------------------------------------

|-12------------12---------------------12------------------
|----15-12----12---15p12-------------12---15p12------------
|----------14^-----------14-12----14^-----------14-12------
|------------------------------14--------------------------
|----------------------------------------------------------
|----------------------------------------------------------
  development and support by
dmitry ivanov