rock
 
|tablatures   |lyrics   |discussion forums   |more tabs @ XGuitar.com

Black Sabbath tabs

Eternal Idol guitar tab

Eternal Idol
Black Sabbath - The Eternal Idol (1987)


|-------------------------------------------------------------
|-------------------------------------------------------------
|-------------------------------------------------------------
|-----9h10-----------9/10--------------9h10--------9/10-------
|---7--------------7------9--10------7-----------7------9--10-
|-0--------------0-----------------0-----------0--------------


|--------------------------------------------------------
|--------------------------------------------------------
|----12-11----11--10-----10-----5--5---------------------
|-2--12-11----11--10-----10-----5--5---------------------
|-2--10--9-----9---8------8---0-3--3---------------------
|-0------------------------------------------------------

|----------------------------------------------------------
|----------------------------------------------------------
|----12-11----14--10-----10-----5--5-----------------------
|-2--12-11----14--10-----10-----5--5-----------------------
|-2--10--9----12---8------8---0-3--3-----------------------
|-0--------------------------------------------------------


|---------------------------------------------------------
|---------------------------------------------------------
|----12---------------------------------------------------
|-2--12--8--------7--------6---9--5-----------------------
|-2--10--8--------7--------6---9--5-----------------------
|-0------6--------5--------4---7--3-----------------------


  development and support by
dmitry ivanov