rock
 
|tablatures   |lyrics   |discussion forums   |more tabs @ XGuitar.com

Black Sabbath tabs

Electric Funeral bass tab

Electric Funeral - Bass
Black Sabbath - Paranoid (1970)


---------------------------------
---------------------------------
--------2--3--2------------------
-0---0------------0---2--3--2----


-----------------------------------------------
-----------------------------------------------
------2---1---0-------------------2---1---0----
--0-------------3----0--0--0--0--------------3-


-----------------
-----------------
-----------------
---7--6--5-------


-------------12-12-12-12-12--------------12-12-12-12-12-------------12-
-2--0--2---------------------2--0--2----------------------2--0--2------
-----------------------------------------------------------------------
-----------------------------------------------------------------------


-12-12-12-12-------------12-12-12-12-12---
---------------2--0--2--------------------
------------------------------------------
------------------------------------------


--9--12--14--12--16--|--9--12--14--16--12--|--17--17--17--17----
---------------------|---------------------|--------------------
---------------------|---------------------|--------------------
---------------------|---------------------|--------------------


-7--7--7--9/(15)----
--------------------
--------------------
--------------------
  development and support by
dmitry ivanov