rock
 
|tablatures   |lyrics   |discussion forums   |more tabs @ XGuitar.com

Black Sabbath tabs

Dying for Love guitar tab

Dying For Love
Black Sabbath - Cross Purposes (1994)


|----6------------6-5--6-8^--6--------8---6-------6^-------
|-6^---^6---------------------------8---8---8-6h8----------
|--------------3^------------------------------------------
|----------------------------------------------------------
|----------------------------------------------------------
|----------------------------------------------------------

|-10-------10----8----------------8-6---6---5-------6-5-------
|----11-------11---10---------8-----------8---6---------6-----
|-------12----------------------7---------------5---------5^--
|-------------------------------------------------------------
|-------------------------------------------------------------
|-------------------------------------------------------------

|----------[AH]--------------------------------------------
|----------------------6-8---------------------------------
|-5^p3---5^-5----(5)/7-----7~~--5-7p5h7p5h7p5\3h5p3-h5-----
|------5---------------------------------------------------
|----------------------------------------------------------
|----------------------------------------------------------

|----------------------------------------------------------
|----8-10-10^-^10-8---11-10-8------11-10-8-----------------
|-/7--------------------------10-7---------10-7------------
|----------------------------------------------------------
|----------------------------------------------------------
|----------------------------------------------------------

|-----------------------------------------
|-6p3-------------------------------------
|----6p5p3-5p3p2---3p2----5^^5-3----------
|----------------5-----5---------5-3------
|-----------------------------------------
|-----------------------------------------


|-------------------------------------------------------------------
|-------1-----1---------1-------1-------1-----1---------1-----------
|---0-------0---0---0-------0-------0-------0---0---0-----------0---
|-------------------------3---3-------------------3---3-----1-------
|-3---3-----------3---3-----------3---3-------------------3---3-----
|-------------------------------------------------------------------

|-------0--------------0-----------------------------------
|-----1---1----------1---1---------1-----------------------
|---2-------2------0-------0-----2-------------------------
|-------------2--------------2-----------------------------
|-0-------------/3-------------------/5----3----2-----0-and so on...
|------------------------------1-------------------3-------

"Hear them call you..."
|---------------------------------|------------------------
|---------------------------------|------------------------
|-2-2-2---2-----2---2-5-2-2-2---2-|-2-4-5---7----9---------
|-2-2-2---2-----2---2-5-2-2-2---2-|-2-4-5---7----9---------
|-0-0-0---0-----0---0-3-0-0-0---0-|-0-2-3---5----7---------
|-------3---------3-----------3---|------------------------

|---------------------------------------------10-----------
|--------8/10-12-10-7--------------8/10-12-10----12--------
|---9-11--------------7-9-----9-11-------------------------
|-9-------------------------9------------------------------
|----------------------------------------------------------
|----------------------------------------------------------

|----------------------------------------------------------
|----------------------------------------------------------
|---------------4-5----------------------------------------
|-7-7-7-5-7---7-4-5---5----3----7---5---4----7-------------
|-7-7-7-5-7---7-2-3---5----3----5---3---2-5--7-------------
|-5-5-5-3-5---5-------3----1--------------3--5-------------


  development and support by
dmitry ivanov