rock
 
|tablatures   |lyrics   |discussion forums   |more tabs @ XGuitar.com

Black Sabbath tabs

Don't Start (Too Late) guitar tab

Don't Start (Too Late)
Black Sabbath - Sabotage (1975)

Tune down 1 1/2 steps (C#)
(I)
|----------------------------------------------------------
|----------------------------------------------------------
|----------------------------------------------------------
|----------------------------------------------------------
|-----3-----3-----3-----3-----3-----3-----3-----3----------
|-1-1---1-1---1-1---1-1---1-1---1-1---1-1---1-1------------
(I)
|----------------------------------------------------------
|----------------------------------------------------------
|-------1---1-3-1---------------1---1-3-1---1-3---1--------
|-1-3-4---4-------4-3-1-3-1-3-4---4-------4-----4---/4-----
|----------------------------------------------------------
|----------------------------------------------------------
|(II)
|---------------------------------------------------------------------
|-------9-11-9----11-9----9-------------9-11-9----11-9----9-----------
|-10-11--------11------11---10-11-10-11--------11------11---11-10-/11-
|---------------------------------------------------------------------
|---------------------------------------------------------------------
|---------------------------------------------------------------------
(I)
|----------------------------------------------------------
|----------------------------------------------------------
|----------------------------------------------------------
|---4-4---4-4---4-4---4-4---4-4---4-4---4-4---4-4---4-4----
|-2-----2-----2-----2-----2-----2-----2-----2-----2--------
|----------------------------------------------------------
(II)
|------------------9-9-9-9/11----
|----9-11-12-11-12---------------
|-11-----------------------------
|--------------------------------
|--------------------------------
|--------------------------------
(II)
|---------------------------------------
|----9-11-12---11--------9-11-12---11---
|-10------------------10----------------
|---------------------------------------
|---------------------------------------
|---------------------------------------
(II)1st time
|------------------------------
|------------------------------
|-4-3-1-3-1--1-----------------
|--------------4-3-4--1-3------
|------------------------------
|------------------------------
(II)
|---------------------------------------9-9/11----11-11---11-11-
|-11----12--11h12p11------12-11-9-11-12-------------------------
|---------------------------------------------------------------
|---------------------------------------------------------------
|---------------------------------------------------------------
|---------------------------------------------------------------

(II)
|--------------------------------------
|-11-12p11-9-11-12p11-9-11-12p11-9-11--
|--------------------------------------
|--------------------------------------
|--------------------------------------
|--------------------------------------
|(I)
|--------------------------------
|--------------------------------
|--------------------------------
|-8-9-9----8-9-9----8-9-9----8---
|-------11-------11-------11-----
|--------------------------------

  development and support by
dmitry ivanov