rock
 
|tablatures   |lyrics   |discussion forums   |more tabs @ XGuitar.com

Black Sabbath tabs

Dirty Women guitar tab

Dirty Women
Black Sabbath - Technical Ecstacy (1976)


|-------------------------------------|
|-------------------------------------|
|------2-----------------2------------|
|----2-----------------2--/3---2------|
|--0-----------------0-------------3--|
|--------3----------------------------|


 Dm        C/D     Dm      C/D                 Dm  
  I need a lady, to help me to get through the night...(and so on)

						  |1.---------------|
|----------------|----------------|---------------|-----------------|
|----------------|----------------|---------------|-----------------|
|----------------|----------------|---------------|-5-----5/7-9~~~~-|
|----------------|-5---7--5h7-8---|---------------|----7------------|
|-5---7--5h7-8---|----------------|-3---5--3h5-7--|-----------------|
|----------------|----------------|---------------|-----------------|

fig a
|--------------------------|
|--------------------------|
|--------------------------|
|-7-7-5-7------------------|
|-5-5-3-5--3-5-3-5-8---10--|
|----------1-3-1-3-6---8---|


|2.Solo--(w/fig a)--->
|----------------10----------------------------------------------|
|-13^--------13^---13p10-----------------------------------------|
|-----------------------12^10-------10-12^-14^-10--12p10---------|
|-----------------------------12~~---------------12-----12~~~-10-|
|----------------------------------------------------------------|
|----------------------------------------------------------------|


|------------------------------|----------------------------13p10--10-|
|------------------------------|--------------------------13-----13---|
|------------------------------|-----------------10-10-12^------------|
|------------------------------|------10-1010h12----------------------|
|-12\10--8-10p8--------------8-|-10/12--------------------------------|
|---------------10---8--8h10---|--------------------------------------|


|----------------------------------------|-----------------------------------|
|-13p10----------------------------------|-----------------------------13-10-|
|------12p10-12^-10--12p10--10-----------|-------------------10--10-12^------|
|------------------12-----12--12p10------|--------10-10-10h12--12------------|
|----------------------------------12\10-|-8--8/10---------------------------|
|----------------------------------------|--10-------------------------------|


|------------------------------|------------------------------|
|-13---------------------------|----13---13---13---13---13----|
|---12^-10h12-12p10------------|-12^--12^--12^--12^--12^--12^-|
|------------------12~~~-------|------------------------------|
|---------------------------10-|------------------------------|
|------------------------------|------------------------------|


|----------------------------|--------10--13p10----------------|
|-13---13---13---------------|-----------------13p1013p10------|
|---12^--12^--12^-12-10------|-10-12^--------------------12p10-|
|-----------------------12~~-|---------------------------------|
|----------------------------|---------------------------------|
|----------------------------|---------------------------------|


|-------10-12~~------------10------------------------------|
|----13-----------------------13p10--10--------------------|
|-12^-------------14^12^14---------12--12p10---------------|
|-------------------------------------------12p10----------|
|------------------------------------------------12\10-8---|
|-------------------------------------------------------10-|


|-------------------------------------|-13-15^-15-13---------------|
|-------------------------------13-13-|--------------15p13---------|
|---9h10p9-10p9--------10-10-12^------|-------------------14\12-10-|
|-10-----------10-10/12---------------|----------------------------|
|-------------------------------------|----------------------------|
|-------------------------------------|----------------------------|


|----------------------------|end solo:
|----------------------------|
|-12p10----------------------|
|-------12p10-12-12~~~~~-\\\-|
|----------------------------|
|----------------------------|


|-------------------------|--------------------------|
|-------------------------|--------------------------|
|-------------------------|--------------------------|
|-------------------------|-----------/7--5----------|
|-5--7--8--5-7--8--5-7--8-|-3--5--6--3-------8--7-5--|
|-------------------------|--------------------------|


|----------|---------------|
|--(3 x)---|---------------|
|----------|---------------|
|-7---7----|--12---12--12--|
|-7---7----|--10---10--10--|
|-5---5----|---------------|

then go to fig a for 4 bars

|------3--2---|------3--2---|------3--2---|------3--2---|
|-----------3-|-----------3-|-----------3-|-----------3-|
|----2--------|----2--------|----0--------|----0--------|
|-0-----------|-------------|-------------|-------------|
|-------------|-3-----------|-2-----------|-1-----------|
|-------------|-------------|-------------|-------------|








  development and support by
dmitry ivanov