rock
 
|tablatures   |lyrics   |discussion forums   |more tabs @ XGuitar.com

Black Sabbath tabs

Die Young guitar tab

Die Young
Black Sabbath - Heaven And Hell (1980)


|----------------------------------------------------------------------------
|-15^----12h15p12------------------------------------------------------------
|-----------------14-12-14^---12h14p12-11--12--------------------------------
|----------------------------------------------14--12h14p12------------------
|--------------------------------------------------------------14\12---------
|--------------------------------------------------------------------14--12--


|-12-12-----14-14-----15-15-----17-17-----19-19-------------
|-15^15^----17^17^----18^18^----20^20^----22^22^------------
|-----------------------------------------------------------
|-----------------------------------------------------------
|-------------(w/ long delay: listen to song)---------------
|-----------------------------------------------------------


|-------------------------------------------------------------
|-------------------------------------------------------------
|--9-----12-14-12\11--9-----5--7--12\11--9--------------------
|--9-----12-14-12\11--9-----5--7--12\11--9--------------------
|--7-----10-12-10\9---7-----3--5--10\9---7-----7---10-9-7-----
|---------------------------------------------------------10--

 
|-----12--------15-14-12------------------------------------
|--12----15^-------------15-12------------12----------------
|------------------------------14^^12--14----12-------------
|-----------------------------------------------14----------
|-----------------------------------------------------------
|-----------------------------------------------------------

|----15-121512------15-121512---12151215121512151215121512151215--
|-15^---------15-15^---------15-----------------------------------
|-----------------------------------------------------------------
|-----------------------------------------------------------------
|-----------------------------------------------------------------
|-----------------------------------------------------------------

 gather the wind...
|----------------------------------------------------------------------
|---------------------------------------------------10^^8--------------
|--9---------------5----7----9-----12-14-12\11--9----------9--7-----9--
|--9---------------5----7----9-----12-14-12\11--9----5-4-2------9-7-9--
|--7---------------3----5----7-----10-12-10\9---7----------5--2-0---7--
|-----------------------------------------------------------------3-0--


      (1)                                 (2)
|----------------------------|----15------------15-----17^-17^-17^---
|----------------------------|-15^--^15^---15/17---------------------
|----------------------------|---------------------------------------
|----------7-----------------|---------------------------------------
|-10-9-7-----10-9-10-9-------|---------------------------------------
|----------------------10^---|---------------------------------------

so live for today...
|------------------------------------------------------------------
|------------------------------------------------------------------
|-7--7-----7--7--5-----7--7-----------------------12-11--12-7---9--
|-5--7-----5--7--5-----5--7-----------------------12-11--12-7---9--
|----5--------5--3--------5------10-9-7-9-7-------10--9--10-5---7--
|-------------------------------------------10-7-------------------

 (interlude)
|---------------------------------------------7-------------
|-----8-----7-------7-----------8-----7---------8-----------
|-------9-----9-------9-----------9-----9---------9---------
|---------9-----9-------9-----------9-----9---------9-------
|-7-7-------------7---------7-7-------------7---------7-----
|--------------------------------------

  development and support by
dmitry ivanov