rock
 
|tablatures   |lyrics   |discussion forums   |more tabs @ XGuitar.com

Black Sabbath tabs

Country Girl bass tab

Black Sabbath - Mob Rules
Country Girl

note: "*"s are used to represent the same note X times (listen to the song).
% = repeat previous bar

Tune down 1/2 step

G-----------------------------------------
D---------------5-5-----------------------
A--5-7-77-7-5-7------/7-5-----3--2--------
E-------------------------7\--------3--2--

G-----------------------7-9\--------------|
D---------------5-5--/9-------------5--4--|
A--5-7-77-7-5-7---------------3--2--------|
E-----------------------------------------|

   0:37 (fill one octave higher)
G--------------------/9-7-----------------
D---------------5-5-------9\--------------
A--5-7-77-7-5-7---------------3--2--------
E-----------------------------------3--2--

G-----------------------------------------
D---------------5-5-----------------------
A--5-7-77-7-5-7------/7-5-----3--2--------
E-------------------------7\--------3--2--

G-------------------------------------------|
D-------------------------------------------|
A-------------------------------------10-9--|
E--5-7-77-7--5-7-8-7----5-7-8--7--8-7-------|

   1:25
G-----------------------7-9\-------------
D---------------5-5--/9-------------5--4-
A--5-7-77-7-5-7---------------3--2-------
E----------------------------------------

   not 100% sure about this
G--9---9--9---7--
D----7------7----
A----------------
E----------------

   1:44
G----------------------------
D----------5--4---------5-4--
A--7--7-5-------5-3--2-------
E----------------------------

G--9---9--9---7--
D----7------7----
A----------------
E----------------

solo: play main riff

  development and support by
dmitry ivanov