rock
 
|tablatures   |lyrics   |discussion forums   |more tabs @ XGuitar.com

Black Sabbath tabs

Cornucopia guitar tab

Cornucopia
Black Sabbath - Volume 4 (1972)

Tune down 1 1/2 steps

|---------------------------------|-------------------------------
|---------------------------------|-------------------------------
|---------------10------9-10------|--9-10-----9-10-----9-10-------
|-2--5--4--5--4-10------9-10-8-9--|--9-10-8-9-9-10-8-9-9-10-8-9---
|-2--5--4--5--4-/8------7--8-8-9--|--7--8-8-9-7--8-8-9-7--8-8-9---
|-0--3--2--3--2--------------6-7--|-------6-7------6-7------6-7---

(bass)
|----------------------------------------------------------------
|----------------------------------------------------------------
|----------------------------------------------------------------
|-0-0-0-12-12--0-0-0-12-12--0-0-0-10-10-10-10--------------------
|
|----------------------------------------------------------------
|----------------------------------------------------------------
|----------------------------------------------------------------
|---------------------------------12-12-12-12--------------------
|---------------------------------12-12-12-12--------------------
|---------------------------------10-10-10-10--------------------


|--------------------------------------------------------------------
|--------------------------------------------------------------------
|---------------9-9-----------9-9----------9-9----------9-9----------
|-12--11-12-11--9-9-----------9-9----------9-9----------9-9----------
|-12--11-12-11--7-7--10-9-7---7-7--10-9-5--7-7--10-9-7--7-7--10-9-5--
|-10---9-10--9-------------------------------------------------------


|---------------------------
|---------------------------
|---------------------------
|-12-\-7--7-7/10-10-10-10---
|-12-\-7--7-7/10-10-10-10---
|-10-\-5--5-5/8---8--8--8---


|-------0-----------0-----------2-----/5-5-5--------
|---------1-----------1-------3---3---/6-6-6--------
|-----2-----2-----0-----0---2-------2-/5-5-5--------
|---2-----------2---------0-------------------------
|-0-------------------------------------------------
|-------------3-------------------------------------


|------------------------------------|----------------------------
|------------------------------------|----------------------------
|------------------------------------|--------------7^7-5---------
|--------------------------------2-2-|-7-7-7-7-5-5----------------
|----0--0-0----0--0----0--0-0--------|-7-7-7-7-5-5----------------
|-3^--------3^------3^--------3^-----|-5-5-5-5-3-3----------------







  development and support by
dmitry ivanov