rock
 
|tablatures   |lyrics   |discussion forums   |more tabs @ XGuitar.com

Black Sabbath tabs

Cloak & Dagger guitar tab

Cloak & Dagger
Black Sabbath - Japanese Cross Purposes (1994)

Listen to "Clack & Dagger" on the SOUNDS page in Real Audio

                                                                         X2
|----------------------------------------|---------------------------------
|----------------------------------------|---------------------------------
|----------3-----3--5--3h5p3-----3----5--|----------3-----3--5--3--5/7--3--
|-3/5-5-5--3--5--3--5--3h5p3--5--3----5--|-3/5-5-5--3--5--3--5--3--5/7--3--
|-3/5-5-5-----5---------------5----------|-3/5-5-5-----5-------------------
|-1/3-3-3--------------------------------|-1/3-3-3-------------------------

|----------------------------------------------------------
|----------------------------------------------------------
|-------9---8~~~~/--------5--/7-7--5------5---4h5-5--------
|----------------------7--5--/7-7--5--7-----7--------------
|-0---0---0------------7--------------7--------------------
|----------------------------------------------------------

|----------------------------------------------------------
|----------------------------------------------------------
|-------9---8~~~~/--------5--/7-7--5-----------------------
|----------------------7--5--/7-7--5--7--------------------
|-0---0---0------------7--------------7---5--3-------------
|-----------------------------------------------5--4--3----

VERSE:
|----------------------------------------------------------
|----------------------------------------------------------
|----------------------------------------------------------
|---------------------------------------3-2-0--------------
|-5---------3---------------------------------3-0----------
|-----------------------3----------1-----------------------

|----------------------------------------------------------
|----------------------------------------------------------
|----------------------------------------------------------
|---------------------------------------3-2-3/5-7----------
|-5---------3----------------------------------------------
|-----------------------3----------1-----------------------
then back to first riff

BRIDGE:                                                         X2
|--------------------------------------|--------------------------
|--------------------------------------|--------------------------
|--------------------------------------|--------------------------
|----------------------------------2---|--------------------------
|-1------3-1-0-------0-3-5-------5---3-|-1-----3-1-0----0-3-5-----
|--------------------------------------|--------------------------

last tiem on bridge:
|-------------------------------------|--------------------
|-------------------------------------|----go into solo----
|-------------------------------------|--------------------
|-5-5-5-5-5-5-5-5-5-5-5---------------|---2----------------
|-5-5-5-5-5-5-5-5-5-5-5---------------|---2----------------
|-3-3-3-3-3-3-3-3-3-3-3-and so on...--|-1-0----------------

|--------------------------------------|------------------------------------
|--------------------------------------|------------------------------------
|--------------------------------------|------------------------------------
|----------------------------------2---|-----------------------2--3--5-6-7--
|-1------3-1-0-------0-3-5-------5---3-|-1-----3-1-0----0-3-5---------------
|--------------------------------------|------------------------------------

  development and support by
dmitry ivanov