rock
 
|tablatures   |lyrics   |discussion forums   |more tabs @ XGuitar.com

Black Sabbath tabs

Changes bass tab

Title: Changes
Artist: Black Sabbath
Album: Volume 4
Tuning: EADG
Tabber: Justin van Uum.

I feel unhappy.....
G-------5---5----|
D---------x------|
A-3--------------|
E---3------------|

I've lost a best friend
G--------7---7--|
D----------x----|
A-5-------------|
E---5-----------|

I'm going trough Changes...x4
G-------------------------|
D-3------2----0------0----|
A-------------------------|
E-------------------------|

End of Chorus
G--0-----------9-9-9---|
D-(5)--3-----7---------|
A----------------------|
E----------------------|

G---9--9--9--|
D-7----------|
A------------|
E------------|

This above is also the end,or the outro.
Enjoy
  development and support by
dmitry ivanov