rock
 
|tablatures   |lyrics   |discussion forums   |more tabs @ XGuitar.com

Black Sabbath tabs

Call of the Wild bass tab

Tabbed by wutteneumann
standard tuning
Intro & Verse  (0:14): 2x
|----------------------------------------|
|----------------------------------------|
|-7-7-7-7-7-7-7-7-7-7-7------------------|
|----------------------7-7-7-7-7-7-7-7-7-|              | I'm not sure about this |
                                                              |     end      |
Pre-Chorus (0:27): 5x                                               |    |
|--------------------------------------------------------------------------|
|--------------------------------------------------------------------------|
|-7-7-7-7-7-7-7-7-7-7-7-------------------5-5-5-5-5-5-5-5-5-5-5-5-7--57-7-7|and then
|-----------------------8-8-8-8-8-8-8-8-8---------------------------8------|start from the begin (of the pre-chorus)

Chorus (0:54): 2x

It's the call of the wild ...

|---------------------------------|
|---------------------------------|
|-5-5-5-5-3-3-3-3-----------------|
|-----------------3-3-3-3-6-6-8-8-|
  . . . . . . . . . . . .

Pre-Chorus (1:07): 5x
Chorus:    (1:40): 2x

Bridge 1 (1:59): 4x

|---------|
|---------|
|-55~---1-|
|-----3---|
  .-  . .
then this
Brige 2 ( 2:13): 1x

|-----------------|
|-----------------|
|-----------------|
|55~~-555555555555|
 ..
Solo Part the same like the chorus, just without vocals (2:19)
at the end of the Solo Part this
|------------|
|------------| (2:46)
|------------|
|-5555555555-|

Verse (2:49): 5x
Chorus (3:14): till the end


Wow, what a tabb !!
Have Fun !!!
  development and support by
dmitry ivanov