rock
 
|tablatures   |lyrics   |discussion forums   |more tabs @ XGuitar.com

Black Sabbath tabs

Behind The Wall Of Sleep guitar tab

Behind The Wall Of Sleep - Extra Adlib
Black Sabbath - The Ozzman Cometh (1997)

This is a little peice that is on the end 
of BTWOS, at about 3:50 into the song

|-----------------------------------------------------------
|-----------------------------------------------------------
|-----------------------------------------------------------
|-10-12-13-12/--10-12-13-12/--10-12-13-12/----10-12---------
|-10-12-13-12/--10-12-13-12/--10-12-13-12/-12-10-12-12/-----
|------------------------------------------12-------12/-----

|-----------------------------------------------------------
|-----------------------------------------------------------
|-----------------------------------------------------------
|----10-12---------10-12------10-12-13-12/--10-12-13-12/----
|-12-10-12-12/--12-10-12-12/--10-12-13-12/--10-12-13-12/----
|-12-------12/--12-------12/--------------------------------

|-----------------------------------------------------------
|-----------------------------------------------------------
|-10-12-13-----------7h9-9----------------------------------
|-10-12-13-12-~------------10-7\5---5h7p5-5-----------------
|---------------------------------7---------7\5-5h7p5-----7-
|-----------------------------------------------------8p5-5-

|-----------------------------------------------------------
|-----------------------------------------------------------
|-----5-7-8p7-5---------------------------------------------
|-5-7-----------7p5---5h7p5---5-----------------------------
|-------------------7-------7---7\5-3h5p3-3-----7-----------
|-------------------------------------------5p3-5-----------
drums in
|-------------------------------------------------------------------
|-------------------------------------------------------------------
|---5-7---5-8---5-9-9-9---5-7---5-8---5-9-9-9---5-7---5-8---5-9-9-9-
|-7-----7-----7---------7-----7-----7---------7-----7-----7---------
|-------------------------------------------------------------------
|-------------------------------------------------------------------
drums out
|---------------------------5h8p5-5-------------------------
|---------------------5h8p5---------8-5-5-------------------
|-5-7-8p7-5-----5-7p5---------------------7-5-4h5p4-4-------
|-----------7p5---------------------------------------------
|-----------------------------------------------------------
|-----------------------------------------------------------

|-----------------5-8p5-5-------------------------5-8p5-5-/-
|---------5h8p5h8---------8-5-5-------------5-8p5-----------
|-5-4-5-7-----------------------7-5-5h7p5-7-----------------
|-----------------------------------------------------------
|-----------------------------------------------------------
|-----------------------------------------------------------

|-8-5-5h8p5-------------------------------------------5h8p5---
|-----------8p5h8-------------------------------5h8p5---------
|-----------------7p5h7-5h7p5-5-----------5h7p5---------------
|-------------------------------7-5-5h7p5---------------------
|-------------------------------------------------------------
|-------------------------------------------------------------

|-----------------------------------------------------------
|-5h8p5-----------------------------------------------------
|-------5h7p5-5h7p5-5---------------------------------------
|---------------------5h7-5h7p5-5-/-------------------------
|-----------------------------------------------------------
|-----------------------------------------------------------

|-----------------------------------------------------------
|-----------------------------------------------------------
|-----------------------------------------------------------
|-5h7-5h7-5h7-5h7-(5)h7p5---5h7-5h7-5h7-5h7-(5)h7p5---------
|-------------------------7-------------------------7-------repeat 
|-----------------------------------------------------------

|-----------------------------------------------------------
|-----------------------------------------------------------
|-----------------------------------------------------------
|-10-12-13-12/--10-12-13-12/--10-12-13-12/----10-12---------
|-10-12-13-12/--10-12-13-12/--10-12-13-12/-12-10-12-12/-----
|------------------------------------------12-------12/-----

|-----------------------------------------------------------
|-----------------------------------------------------------
|-----------------------------------------------------------
|----10-12---------10-12------10-12-13-12/--10-12-13-12/----
|-12-10-12-12/--12-10-12-12/--10-12-13-12/--10-12-13-12/----
|-12-------12/--12-------12/--------------------------------

|-----------------------------------------------------------
|-----------------------------------------------------------
|-10-12-13-----------7h9-9----------------------------------
|-10-12-13-12-~------------10-7\5---5h7p5-5-----------------
|---------------------------------7---------7\5-5h7p5-----7-
|-----------------------------------------------------8p5-5-
  development and support by
dmitry ivanov