rock
 
|tablatures   |lyrics   |discussion forums   |more tabs @ XGuitar.com

Black Sabbath tabs

Bassically bass tab

Bassically
Black Sabbath - Black Sabbath (1970)



|---------------------------------------------9-9p7-9^-9p7-----------
|---------5^---5-7-7^-7-5-------5^-----7--7-9--------------9p7-9-----
|-7-7-5------7------------7-5------5-7---------------------------10--
|-------7---------------------7--------------------------------------

|-------------------------------------------------------
|-----5--7^-7-5----------------------5-----5-7^-7-5-----
|-5-7-----------7-5--------------7-7---7-7----------7---
|-------------------7-5-3^-0-5-7------------------------

|-----7h9-9-9-7---------------------------------------------------
|-7-9-----------9-7h9----5--------------5-7^-7-5---5--------------
|---------------------10---7--------5-7----------7---7-5----------
|----------------------------7--5-7----------------------7-5-3-0--

|---------------------------------------------------------
|---------5---------------5-7-7^-7-5------5-5-7-7^^7-5----
|-----5-7---7----7-5-7--7-------------5-7--------------7--
|-5-7-----------------------------------------------------

|---------------------------------9-9-9-7-----------------
|--------------5-7-7^-7-5-----7-9---------7h9-5-------5---
|--7-5-----5-7------------7---------------------7-5-------
|------5-7------------------------------------------7-----

|--------------------------------------------------------------------
|-------------------5---------------------5h7p5---------------7^-7-5-
|-7-5----7-5----5-7---7---5---7---5---7---------7---7-5---5-7--------
|-----7-------7-------------7---7---7---7---------------7------------

|----------------------------------------------------------
|----------------------------------------------------------
|-7-7-7-7-5---5-7------------------------------------------
|-----------7----------------------------------------------
  development and support by
dmitry ivanov