rock
 
|tablatures   |lyrics   |discussion forums   |more tabs @ XGuitar.com

Black Sabbath tabs

Back Street Kids guitar tab

Back Street Kids
Black Sabbath - Technical Ecstacy (1976)


|-----------------------------|-----------------------------------
|-----------------------------|-----------------------------------
|-9-9---------12--12-11-7-9---|---9-11-12--7----6---9-11-12-9-----
|-9-9---------12--12-11-7-9---|---9-11-12--7----6---9-11-12-9-----
|-7-7---------10--10--9-5-7---|---7--9-10--5----4---7--9-10-7-----
|-----------------------------|-----------------------------------
|                             |
|-----------------------------|----------------------------
|-----------------------------|----------------------------
|-----------------------------|----------------------------
|-----------------------------|----------------------------
|-----------------------------|----------------------------
|-000-000-00002-000-0-000-000-|----------------------------


|-----------------------------------------------------------------
|-----------------------------------------------------------------
|-/6----9--6--5--4-----2-4-6----9--6--5--4-4---7-6----------------
|-/6----9--6--5--4-----2-4-6----9--6--5--4-2-2-7-6----------------
|-/4----7--4--3--2-----0-2-4----7--4--3--2---0-5-4----------------
|-----------------------------------------------------------------
|
|-----------------------------------------------------------------
|-----------------------------------------------------------------
|-----------------------------------------------------------------
|-------2-----------------------2----------2----------------------
|-/4-------4--3--2-----2-3-4-------4--3--2-----5-4----------------
|--------------------------------------------5--------------------


|-----------------------------------------------------------------
|-------------13---13---13--------------13---13--13---------------
|-----12--14--12---12---12------12--14--12---12--12---------------
|-12--12--14----------------12--12--14----------------------------
|-12------------------------12------------------------------------
|-----------------------------------------------------------------

"living life comes easy..."
|----------------------------------------------------------
|----------------------------------------------------------
|---8-7---------5--4--5--5---8-7---------5--4--5-----------
|---8-7---------5--4--5--5---8-7---------5--4--5-----------
|-5---------2-3------------5---------2-3-------------------
|---------5------------------------5-----------------------

w/ solo"
|----------------------------------------------------------
|----------------------------------------------------------
|-----------------------12---------------------------------
|-12---10-----7-10-12---12----10--9------------------------
|-12---10-----7-10-12---10----10--9------------------------
|-10----8-----5--8-10----------8--7------------------------

Solo:
|----------------------------------------------------------
|----------------------------------------------------------
|-----9^-7-9---10p9p7-10p9p7-10p9p7-10p9p7-10p9p7-7--------
|----------------------------------------------------------
|-5--------------------------------------------------------
|----------------------------------------------------------

|-13^-13----10-10---------------------------------------------
|--------13-------13-10------------------------13-13----13----
|-----------------------12-12p10----10-12^-----------12^--12^-
|--------------------------------12---------------------------
|-------------------------------------------------------------
|-------------------------------------------------------------

|--------10-12~~-------18^--17-15-14-15-17----------10-----
|-/10-13-----------------------------------17\----10-------
|----------------------------------------------12^---------
|----------------------------------------------------------
|----------------------------------------------------------
|----------------------------------------------------------

|----10---13-10---10---------------------------------------
|-13^--13^------13--13-10-----------10---------------------
|-------------------------12-10-12^----12-10-12-12-12^-----
|----------------------------------------------------------
|----------------------------------------------------------
|----------------------------------------------------------


  development and support by
dmitry ivanov