rock
 
|tablatures   |lyrics   |discussion forums   |more tabs @ XGuitar.com

Black Sabbath tabs

Angry Heart guitar tab

Angry Heart
Black Sabbath - Seventh Star (1986)

|-----------------------------------------------------------
|-----------------------------------------------------------
|-----------------------------------------------------------
|-----------------------------------------------------------
|-----------------------------------------------------------
|-5-5-5-5-5-5-5-5-5-5-5-5-5-5-5-5-5-5-5-5-5-5-5-5-5-5-5-5-5-

|-------------------------------------------------------------------
|-------------------------------------------------------------------
|----------12-------------------------------------------------------
|-7---10---12---7-----------7---------------------------------------
|-7---10---10---7--------------5^-5-----7-5h7p5---------------------
|-5----8--------5----0--/5-----------------------8--3--5-----0-3-4--

"and it's been that way..."  P.M. where needed
|-------------0---------------0---------------0-------5-----8-----5---
|-----------1---1-----------1---0-1---------0---0-------5-----5-------
|---------0-------0-------2---------2-----5-------5-------5-----5---5-
|-------2-----------2---0---------------7-----------7-----------------
|-0-2-3---------------2---------------0-------------------------------
|---------------------------------------------------------------------
(*(1st time)*)
|---------0---------------0---------------
|-------1---1-----------1-----------------
|-----0-------0-------2-------------------
|---2-----------2---0---------------------
|-3---------------2-----------------------
|---------------------------0--3/4--5-----
(*(2nd time)*)
|---------0---------------0----------------0-------------------
|-------1---1-----------1----------------0---0-----6-----5-----
|-----0-------0-------2----------------5-------5-----5-----5---
|---2-----------2---0----------------7-----------7-----7-----7-
|-3---------------2----------------0---------------------------
|---------------------------0-3/4------------------------------

go into "Im Memory..."

  development and support by
dmitry ivanov