rock
 
|tablatures   |lyrics   |discussion forums   |more tabs @ XGuitar.com

Black Sabbath tabs

Ancient Warrior guitar tab

Ancient Warrior
Black Sabbath - The Eternal Idol (1987)


|------------------------------------------------------------------
|------------------------------------------------------------------
|------------------------------------------------------------------
|------------------------------------------------------------------
|-10-----9-----7-----7-----7-9-----10-----9-----7\--------0--------
|----0-0---0-0---0-0---0-0-----10-----0-0---0-0-----0-2-3---3-2-0--


|----------------------------------------------------------
|----------------------------------------------------------
|----------------------------------------------------------
|---------6------------------------6----------7------------
|---7p6-7---7-6-6--7---------7p6-7---7-6-6--7---5~---------
|-0------------------0000000-------------------------------


|------------------------------------------------------------------
|------------------------------------------------------------------
|--------------9-----9--------------------------9\-----------------
|--------------9-----9--------------------------9\-----------------
|-10-----9-----7-----7-----7-9-----10-----9-----7\--------0--------
|----0-0---0-0---0-0---0-0-----10-----0-0---0-0-----0-2-3---3-2-0--


|---------------------------------------------------------------
|---------------------------------------------------------------
|------------------9-8----8-8p7---------------------------------
|---------4-5-4---------9-------9-7---------------------5p4-----
|-0h3h5-2---------------------------10-----5-6-7------------5-7-
|---------------0--------------------------------000000---------


|----------------------------------------------------------
|----------------------------------------------------------
|------------------------------------4-3---------------------
|----7---6---5---3-5-2---------2--1------0--------------
|-0----------------------0--1-------------------------------
|----------------------------------------------------------


|----------------------------------------------------------
|----------------------------------------------------------
|----------------------------------------------------------
|----------------------------------------------------------
|----------------------------------------------------------
|----------------------------------------------------------


  development and support by
dmitry ivanov