rock
 
|tablatures   |lyrics   |discussion forums   |more tabs @ XGuitar.com

Black Sabbath tabs

Am I Going Insane guitar tab

Am I Going Insane
Black Sabbath - Sabotage (1975)

Tune down 1 1/2 steps (C#)



|---------------------|----------------------|---------------------
|---------------------|----------------------|---------------------
|--4---6---7^^\6-\-4--|---2---4---6^^\4---2--|---------------------
|---------------------|----------------------|---------------------
|---------------------|----------------------|---------------------
|---------------------|----------------------|---------------------


|--------------------------------
|--------------------------------
|--1----------2^^----1---2-------
|--------------------------------
|--------------------------------
|--------------------------------
|
|--------------------------------
|--------------------------------
|--------------------------------
|--2----------4^^---2---0--------
|--------------------------------
|--------------------------------


everybody's...
|--------------------------------------------------------------
|--------------------------------------------------------------
|--1------------2---------------4^^---2------------------------
|--2----------2-3---------------5^^---3------------------------
|--------------------------------------------------------------
|--------------------------------------------------------------

feeling paraniod...
|--------------------------------------------------------------
|--------------------------------------------------------------
|--1------------2---------------------2------------------------
|--2------------0---------------------0------------------------
|-------------2------------------------------------------------
|--------------------------------------------------------------


Tell me people, am I going insane?
C C C C C C C C D D D D D D A A A 


|--------------------------------------------------------------
|--------------------------------------------------------------
|--1----------------2---4p2h4p2+2p1----2-----------------------
|--2----------------4---6p4h6p4+4p2----------------------------
|--------------------------------------4^----------------------
|--------------------------------------------------------------


|--------------------------------------------------------------
|--2-----------------------------------------------------------
|--1h2p1--4-------2-------1------------------1h2p2--2------4---
|---------4-------2-------2---------------4---------4------2---
|--------------------------------------------------------------
|--------------------------------------------------------------


|--------------------------------------------------------------
|-----------------------2--------------------------------------
|--1^-^-^---------------4-----4|2---1|1---1--------------------
|-----------------------------------------2--------------------
|--4^-^-^------------------------------------------------------
|--------------------------------------------------------------


|--------------------------------------------------------------
|------------------/5--------3----------------3h6----3-----2---
|-1-----2-----4|1---4--------2----------------2h4----2-----1---
|-2-----4------------------------------------------------------
|--------------------------------------------------------------
|--------------------------------------------------------------


|--------------------------------------------------------------
|------------------------------------3^------3-----------------
|--/1--------------1----2----4|1-----2^------2-----------------
|--/2--------------2----4--------------------------------------
|--------------------------------------------------------------
|--------------------------------------------------------------


|---------------------------------------------------------------------------
|-----7--8--7--8-----7--8--/12--10h12p10-8-10-8h10p8-7--8--7-----7----------
|--9--------------9-------------------------------------------9-----7----9--
|----------------------------------------------------------------------7----
|---------------------------------------------------------------------------
|---------------------------------------------------------------------------
  development and support by
dmitry ivanov